Oops, an error
Loading. Please wait.

The Flight Of The Bumble Bee Tab

version 1
version 1

Whole song

Interactive

4,452 views 1 this week
no commentswrite comment
1 2 3 4 5
please rate
add to favorites
launch autoscroll
font size
0
reset
how to read this tab
guitar tuner
Tab Pro tools
  • play this tab
  • loop segment
  • change instrument
  • show fretboard
  • metronome
Autoscroll
slow
fast
+/-
esc
set tempo
stop
Contributor
Difficulty
intermediate
flight of the bumble bee
*-12<<- means -12-11-10-9-
 --9>>- means --9-10-11-12-

|-12<<-10<<-8<<-------------------------------------|
|---------------9<<---------------------------------|
|-------------------9<<-7<<-5<<---------------------|
|-------------------------------6<<-----------------|
|-----------------------------------7<<-5<<-7<<-5<<-|
|---------------------------------------------------|

|------------------------------------|
|------------------------------------|
|------------------------------------|
|-----------------------------*------|
|-7<<-3-8-7-6--7<<--3>>--------------|
|------------------------------------|

|------------------------------------------|
|------------------------------------------|
|------------------------------------------|
|----------------------------------2-4-5-6-|
|-7<<-5<<-3>>-7-8-7-6--7<<-5<<-3>>---------|
|------------------------------------------|

|------------------------------------|
|------------------------------------|
|-----------------------------*------|
|-7<<-3-8-7-6--7<<--3>>--------------|
|------------------------------------|
|------------------------------------|

|------------------------------------------|
|------------------------------------------|
|------------------------------------------|
|-7<<-5<<-3>>-7-8-7-6--7<<-5<<-3>>-7-8-7-6-|
|------------------------------------------|
|------------------------------------------|

|-----------------------------------------|
|-----------------------------------------|
|-----------------------------------------|
|-7---------------------------------------|
|-0000-0000-1111-1111-0000-0000-1111-1111-|
|-----------4444-4444-5555-5555-4444-4444-|

|--------------------------------------------|
|--------------------------------------------|
|--------------------------------------------|
|--------------------------------------------|
|-0000-1111-00-11-22-33-4<<-0>>-4<<-0-2-3-4--|
|-5555-4444-55-44-33-------------------------|

|-----------------------------------------|
|-----------------------------------------|
|-----------------------------------------|
|-0000-0000-1111-1111-0000-0000-1111-1111-|
|-----------4444-4444-5555-5555-4444-4444-|
|-----------------------------------------|

|--------------------------------------------|
|--------------------------------------------|
|--------------------------------------------|
|-0000-1111-00-11-22-33-4<<-0>>-4<<-0-2-3-4--|
|-5555-4444-55-44-33-------------------------|
|--------------------------------------------|

|---------------------------------------|
|---------------------------------------|
|-7<<-3-8-7-6--7<<--3>>-7<<-5<<-3>>-5>>-|
|---------------------------------------|
|---------------------------------------|
|---------------------------------------|

|------------------------------------------|
|------------------------------------------|
|-9<<-7<<-5<<------------------------------|
|-------------6<<-----------------*--*--*--|
|-----------------7-8-7-6-7-8-7-6----------|
|------------------------------------------|

|-----------------------------------------|
|-----------------------------------------|
|-----------------------------------------|
|-----------------------------------------|
|-7<<-5<<-3<<---------------------*--*--*-|
|-------------4<<-0-1-0-0-0-1-0-0---------|

|---------------------------------------------|
|---------------------------------------------|
|---------------------5>>-9-10-9-8--9-10-9-8--|
|-------------2>>-6>>-------------------------|
|---------3>>---------------------------------|
|-0>>-4>>-------------------------------------|

|------------------------------------|
|------------------------------------|
|-9<<-5-10-9-8--9<<--5>>-----*-------|
|------------------------------------|
|------------------------------------|
|------------------------------------|

|-------------------------------------------|
|-----------------------------------5-7-8-9-|
|-9<<-7<<-5>>-9-10-9-8--9<<-7<<-5>>---------|
|-------------------------------------------|
|-------------------------------------------|
|-------------------------------------------|

|------------------------------------|
|-10<<-6-11-10-9--10<<-6>>----*------|
|------------------------------------|
|------------------------------------|
|------------------------------------|
|------------------------------------|

|-----------------------------------------12-13-12-11-|
|-10<<-8<<-6>>-10-11-10-9--10<<------10>>-------------|
|-------------------------------10>>------------------|
|-----------------------------------------------------|
|-----------------------------------------------------|
|-----------------------------------------------------|

|-12<<-8-13-12-11--12<<-8>>----------|
|------------------------------------|
|------------------------------*-----|
|------------------------------------|
|------------------------------------|
|------------------------------------|

|-12--------6>>-10<<-8<<-----8>>-12-13-12-11--------|
|------9-10--------------9>>------------------------|
|----------------------------------------------*----|
|---------------------------------------------------|
|---------------------------------------------------|
|---------------------------------------------------|

|-12------6>>-10<<-8<<---8>>-12-13-12-11--12-14-15-16-|
|----9-10-------------9>>-----------------------------|
|-----------------------------------------------------|
|-----------------------------------------------------|
|-----------------------------------------------------|
|-----------------------------------------------------|

|-17<<-15<<-13<<------------------------|
|----------------14<<-10<<-8<<-6<<------|
|----------------------------------6<<--|
|---------------------------------------|
|---------------------------------------|
|---------------------------------------|

|------------------------------------|
|------------------------------------|
|-2-3-2-1-2-3-2-1-2---4---5---7------|
|------------------------------------|
|------------------------------------|
|------------------------------------|

|----------------------------------5-|
|-5-6-5-4-5-6-5-4--5---7---8---9---5-|
|------------------------------------|
|------------------------------------|
|------------------------------------|
|------------------------------------|

|-----------------1>>-5>>-9>>-13>>---|
|-------------2>>--------------------|
|---------2>>------------------------|
|-2-4-5-6----------------------------|
|------------------------------------|
|------------------------------------|

|-17-----5---------------------------|
|-13---------------------------------|
|--------5------2--------------------|
|------------------------------------|
|---------------0--------------------|
|------------------------------------|

comments
We did not receive enough feedback on this tab! Please rate:
print report bad tab
1 2 3 4 5
I want to post or [tab]
guest
You may want to rate the tab now too:
select rating
Please do not post tabs as comments. Select "correction" instead!