Oops, an error
Loading. Please wait.

Journey Tab

10 views 1 this week
no commentswrite comment
1 2 3 4 5
3 more votes to show rating
add to favorites
launch autoscroll
font size
0
reset
how to read this tab
guitar tuner
Autoscroll
slow
fast
+/-
esc
set tempo
stop
Help us to improve Ultimate-Guitar.com Take our survey!
×
Author
Difficulty
Tuning
intermediate
C# G# C# F# A# D#
About this tab version
I made this, it is an original tab for my song. Was this info helpful? Yes No
[Intro]

eb|-------------------------------------|
Bb|-------------------------------------|
Gb|-------------------------------------|
Db|-------------------8-------8---------|(x3)
Ab|-----------------6---6---6---5-------|
Db|-0-0-0-0---0-0-0--------5------------|

eb|-------------------------------------|
Bb|-------------------------------------|
Gb|-------------------------------------|
Db|-------------------------------------|
Ab|--3-3-3-3--3-3-3/5-5-5-5\1-1-1-1-----|
Db|--3-3-3-3--3-3-3/5-5-5-5\1-1-1-1-----|


************************************

| b  Bend
| /  Slide up
| \  Slide down

************************************
Suggest correction
Give kudos to tab author, rate the tab!
1 2 3 4 5
comments
print report bad tab
guest
You may want to rate the tab now too:
select rating
Wanna post a correction for this tab? Suggest correction