Oops, an error
Loading. Please wait.

Coma Baby tab

664 views 18 this week
no commentswrite comment
1 2 3 4 5
x 3
add to favorites
×
Save as Personal and add changes to this tab that will be seen only by you. Learn more ›
×
You can save this tab as Personal to edit and correct it or add notes. All changes will be seen only by you. Learn more »
launch autoscroll
font size
0
reset
how to read this tab
guitar tuner
edit
Autoscroll
slow
fast
+/-
esc
set tempo
stop
Author
Difficulty
About this tab version
Tempo is about 85, 4/4, every note is an eighth note. Lyrics don't match up perfectly but when a new line of lyrics starts it goes back to the beginning of the tab and repeats. Was this info helpful? Yes No
[Intro]
e|---------------------------------------------------------------------------|
B|---------------------------------------------------------------------------|
G|---8--8--8--8-8-8-8-8--8-8-------------------------------------------------|
D|-10-10-10-10----------8-8--------------------------------------------------|
A|---------------------------------------------------------------------------|
E|---------------------------------------------------------------------------|

[Verse]
e|---------------------------------------------------------------------------|
B|---------------------------------------------------------------------------|
G|---8--8--8--8-8-8-8-8--8-8---8--8--8--8-8-8-8-8--8-8-----------------------|
D|-10-10-10-10----------8-8--10-10-10-10----------8-8------------------------|
A|---------------------------------------------------------------------------|
E|---------------------------------------------------------------------------|
      Coma baby   with ur sick head
    The doctors saved u but ur still dead
      Through ur scalp I would like to reach in
    So I could pull out the monster you've been

[Chorus]
e|---------------------------------------------------------------------------|
B|---------------------------------------------------------------------------|
G|---8--8-7-8-7-8-10-8-10-8--8-8--8--8-8-8--8--8-8-8-------------------------|
D|-10-10--------------------8-8-10-10-8-8-10-10-8-8--------------------------|
A|---------------------------------------------------------------------------|
E|---------------------------------------------------------------------------|
But you would do  anything    to destroy the body that they rescued your
sick little head so, brain damaged and lying in that hospital bed

[Verse]
e|---------------------------------------------------------------------------|
B|---------------------------------------------------------------------------|
G|---8--8--8--8-8-8-8-8--8-8---8--8--8--8-8-8-8-8--8-8-----------------------|
D|-10-10-10-10----------8-8--10-10-10-10----------8-8------------------------|
A|---------------------------------------------------------------------------|
E|---------------------------------------------------------------------------|
      Coma baby, the cry of your bones
      And your skull when it split on the road
     I wish I'd find all the lonely remnants
     Of you that left when your head cracked open

[Chorus]
e|---------------------------------------------------------------------------|
B|---------------------------------------------------------------------------|
G|---8--8-7-8-7-8-10-8-10-8--8-8--8--8-8-8--8--8-8-8-------------------------|
D|-10-10--------------------8-8-10-10-8-8-10-10-8-8--------------------------|
A|---------------------------------------------------------------------------|
E|---------------------------------------------------------------------------|
But you would do  anything    to destroy the body that they rescued your
sick little head so, brain damaged and lying in that hospital bed

[Verse]
e|---------------------------------------------------------------------------|
B|---------------------------------------------------------------------------|
G|---8--8--8--8-8-8-8-8--8-8---8--8--8--8-8-8-8-8--8-8-----------------------|
D|-10-10-10-10----------8-8--10-10-10-10----------8-8------------------------|
A|---------------------------------------------------------------------------|
E|---------------------------------------------------------------------------|
      Lately I can't recognize you
     The doctors lied when they said they saved you
     You're just the shell of the boy that you've been
      And you're dying, I can feel it

[Outro]
e|---------------------------------------------------------------------------|
B|---------------------------------------------------------------------------|
G|---8--8-7-8-7-8-10-8-10-8--8-8--8--8-8-8--8--8-8-8-------------------------|
D|-10-10--------------------8-8-10-10-8-8-10-10-8-8--------------------------|
A|---------------------------------------------------------------------------|
E|---------------------------------------------------------------------------|
Play x2, rit. on repeat. On the recording she fades out while playing this, but it sounds nice if you don't
the last three notes on the repeat so the song ends on B flat. 

            
            
Suggest correction
Creating personal tab
Creating personal tab
You can edit any tab online and save it as your Personal.

You can edit, replace or remove any tab part or add personal notes – all changes will be seen only by you.

Personal tabs can be accessed anytime from any device, even offline.
Learn more »
Give kudos to tab author, rate the tab!
1 2 3 4 5
comments
print report bad tab
guest
You may want to rate the tab now too:
select rating
Wanna post a correction for this tab? Suggest correction