Oops, an error
Loading. Please wait.

Hair Lockets tab

700 views 15 this week
no commentswrite comment
1 2 3 4 5
2 more votes to show rating
add to favorites
×
Save as Personal and add changes to this tab that will be seen only by you. Learn more ›
×
You can save this tab as Personal to edit and correct it or add notes. All changes will be seen only by you. Learn more »
launch autoscroll
font size
0
reset
how to read this tab
guitar tuner
edit
Autoscroll
slow
fast
+/-
esc
set tempo
stop
Author
Difficulty
[Verse]
    Cut with dull  scissors  and  tied with a ribbon
    Curated        under          the glass of my pendant
e|---------------------------------------------------------------------------|
B|--1---1---1---1---1---1---1---1--------------------------------------------|
G|-2---2---2---2---0---0---0---0----0---0---0---0---0---0---0---0------------| 
D|--------------------------------2---2---2---2---0---0---0---0--------------|
A|---------------------------------------------------------------------------|
E|---------------------------------------------------------------------------|

[Pre-Chorus]
    You always     said you hated  the things you can't control
    Like all the   wild hair     that grows from your follicles 
e|---------------------------------------------------------------------------|
B|--1---1---1---1---1---1---1---1--------------------------------------------|
G|-2---2---2---2---0---0---0---0----0---0---0---0---0---0---0---0------------| 
D|--------------------------------2---2---2---2---0---0---0---0--------------|
A|---------------------------------------------------------------------------|
E|---------------------------------------------------------------------------|

[Chorus]
    I've been collecting pieces of your hair
    to tuck away              in the locket that I wear 
e|---------------------------------------------------------------------------|
B|--------1------------------------------1-----------------------------------|
G|--------2------------------------------0-----------------------------------|
D|--------2------------------------------2-----------------------------------|
A|--------0------------------------------3-----------------------------------|
E|---------------------------------------------------------------------------|
     Pretty strands that grew in your youth
     Pieces that          I'll always hold on to
e|---------------------------------------------------------------------------|
B|-----1--------------------------------1------------------------------------|
G|-----2--------------------------------0------------------------------------|
D|-----2--------------------------------2------------------------------------|
A|-----0--------------------------------3------------------------------------|
E|---------------------------------------------------------------------------|

"when you're old, grey, and diseased..." play the same chorus part.

            
            
Suggest correction
Creating personal tab
Creating personal tab
You can edit any tab online and save it as your Personal.

You can edit, replace or remove any tab part or add personal notes – all changes will be seen only by you.

Personal tabs can be accessed anytime from any device, even offline.
Learn more »
Give kudos to tab author, rate the tab!
1 2 3 4 5
comments
print report bad tab
guest
You may want to rate the tab now too:
select rating
Wanna post a correction for this tab? Suggest correction