Oops, an error
Loading. Please wait.

Rabid tab

106 views 12 this week
1 commentread comment
1 2 3 4 5
2 more votes to show rating
add to favorites
×
Save as Personal and add changes to this tab that will be seen only by you. Learn more ›
×
You can save this tab as Personal to edit and correct it or add notes. All changes will be seen only by you. Learn more »
launch autoscroll
font size
0
reset
how to read this tab
guitar tuner
edit
Autoscroll
slow
fast
+/-
esc
set tempo
stop
About this tab version
The one riff is repeated thropugh the entire song. Play it once on every line and play it without singing after every chorus as a sort of turnaround. Was this info helpful? Yes No
(Verse)                            (Chorus)
e|------------------------|        e|------------------------|
B|------------------------|        B|------------------------|
G|------------------------|        G|------------------------|
D|---2-----2--------------|        D|---2-----2--------------|
A|-3---2-0---2--2------2--|        A|-3---2-0---2--2------2--|
E|-------------3--2--1---2|        E|-------------3--2--1---2|

Something ugly in you, you also saw in me
Guess we're infected with the same disease
Well I could be your girl and you could be my baby
Have a habit of ruining everything

[Chorus]
We're the same, we're both rabid animals
Got sick heads and minds, we were both born feral
Like fields growing high, we're just those dark animals
The sad things in life, we know no control

e|------------------------|
B|------------------------|
G|------------------------|
D|---2-----2--------------|      
A|-3---2-0---2--2------2--|
E|-------------3--2--1---2|


You like to play with knives and get all cut up
Covered up in welts you say you like it rough
Had a shotgun and you sawed the barrel off
No blood for you will ever be enough

[Chorus]
We're the same, we're both rabid animals  
Got sick heads and minds, we were both born feral 
Like fields growing high, we're just those dark animals
The sad things in life, we know no control   

e|------------------------|
B|------------------------|
G|------------------------|
D|---2-----2--------------|       
A|-3---2-0---2--2------2--|
E|-------------3--2--1---2|
        

You're the darkest horse that I've ever seen                                                                  
Of all the things you f---, I'm the most empty                                                      
And no blood for you will ever be enough                                                       
Can't bury anything without digging it up

e|------------------------|
B|------------------------|
G|------------------------|
D|---2-----2--------------|       
A|-3---2-0---2--2------2--|
E|-------------3--2--1---2|   

            
            
Suggest correction
Creating personal tab
Creating personal tab
You can edit any tab online and save it as your Personal.

You can edit, replace or remove any tab part or add personal notes – all changes will be seen only by you.

Personal tabs can be accessed anytime from any device, even offline.
Learn more »
Give kudos to tab author, rate the tab!
1 2 3 4 5
comments
print report bad tab
1 comment total.
0 reply
sharkieshone 10 Jul 08, 2017 01:01 PM

Capo 3!
e|---------------------------------------------|
B|---------------------------------------------|
G|------0-------0------------------------------|
D|---2-----2--0----0-----0----0----------------|
A|--------------------2-----0---0--------------|
E|---------------------------------------------|

x

guest
You may want to rate the tab now too:
select rating
Wanna post a correction for this tab? Suggest correction