Oops, an error
Loading. Please wait.

White Trashing tab

184 views 9 this week
no commentswrite comment
1 2 3 4 5
2 more votes to show rating
add to favorites
×
Save as Personal and add changes to this tab that will be seen only by you. Learn more ›
×
You can save this tab as Personal to edit and correct it or add notes. All changes will be seen only by you. Learn more »
launch autoscroll
font size
0
reset
how to read this tab
guitar tuner
edit
Autoscroll
slow
fast
+/-
esc
set tempo
stop
About this tab version
Simple and only version of this song. Was this info helpful? Yes No
[Intro]
E|--------1-----------1-----------0-----------0-----------1-----------1-----------1/3-----------3-----|
B|----------------------------------------------------------------------------------------------------|
G|----------------------------------------------------------------------------------------------------|
D|--0--3-----3--0--3-----3-----3-----3-----3-----3--0--3-----3--0--3-----3-----3-------------3-----3--|
A|--------------------------3-----------3-----------------------------------3-------------3-----------|
E|----------------------------------------------------------------------------------------------------|

[Verse 1]
E|--------1-----------1-----------0-----------0--|
B|-----------------------------------------------|
G|-----------------------------------------------|
D|--0--3-----3--0--3-----3-----3-----3-----3-----|
A|--------------------------3-----------3--------|
E|-----------------------------------------------| (x2)
    Empties lined along the porch, shoot them dead, show no remorse

E|--------1-----------1-----------0-----------3-----------1-----------1-----------1/3-----------3-----|
B|----------------------------------------------------------------------------------------------------|
G|----------------------------------------------------------------------------------------------------|
D|--0--3-----3--0--3-----3-----3-----3-----3-----3--0--3-----3--0--3-----3-----3-------------3-----3--|
A|--------------------------3-----------3-----------------------------------3-------------3-----------|
E|----------------------------------------------------------------------------------------------------|
    White trashing with you

E|--------1-----------1-----------0-----------0--|
B|-----------------------------------------------|
G|-----------------------------------------------|
D|--0--3-----3--0--3-----3-----3-----3-----3-----|
A|--------------------------3-----------3--------|
E|-----------------------------------------------| (x2)
    Live in endless afternoon, making love to the sunday cartoons

E|--------1-----------1-----------0-----------3-----------1-----------1-----------1/3-----------3-----|
B|----------------------------------------------------------------------------------------------------|
G|----------------------------------------------------------------------------------------------------|
D|--0--3-----3--0--3-----3-----3-----3-----3-----3--0--3-----3--0--3-----3-----3-------------3-----3--|
A|--------------------------3-----------3-----------------------------------3-------------3-----------|
E|----------------------------------------------------------------------------------------------------|
    White trashing with you

[Chorus]
    Bb5             C5 D5      C5
And all that glitters is not gold
     Bb5          C5    D5      C5
And this same place is getting old
     Bb5            C5              D5            C5
But dreams are fulfilled where the purple grass grows
Bb5       C5      D5             C5
I can see it all just beyond our window

E|--------1-----------1-----------0-----------0-----------1-----------1-----------1/3-----------3-----|
B|----------------------------------------------------------------------------------------------------|
G|----------------------------------------------------------------------------------------------------|
D|--0--3-----3--0--3-----3-----3-----3-----3-----3--0--3-----3--0--3-----3-----3-------------3-----3--|
A|--------------------------3-----------3-----------------------------------3-------------3-----------|
E|----------------------------------------------------------------------------------------------------|

[Verse 2]
E|--------1-----------1-----------0-----------0--|
B|-----------------------------------------------|
G|-----------------------------------------------|
D|--0--3-----3--0--3-----3-----3-----3-----3-----|
A|--------------------------3-----------3--------|
E|-----------------------------------------------| (x2)
    Innocence that I have bled, carved your name into my leg

E|--------1-----------1-----------0-----------3-----------1-----------1-----------1/3-----------3-----|
B|----------------------------------------------------------------------------------------------------|
G|----------------------------------------------------------------------------------------------------|
D|--0--3-----3--0--3-----3-----3-----3-----3-----3--0--3-----3--0--3-----3-----3-------------3-----3--|
A|--------------------------3-----------3-----------------------------------3-------------3-----------|
E|----------------------------------------------------------------------------------------------------|
    White trashing with you

E|--------1-----------1-----------0-----------0--|
B|-----------------------------------------------|
G|-----------------------------------------------|
D|--0--3-----3--0--3-----3-----3-----3-----3-----|
A|--------------------------3-----------3--------|
E|-----------------------------------------------| (x2)
    Plastic Jesus, Santa Claus, rotting like relics, in the yard

E|--------1-----------1-----------0-----------3-----------1-----------1-----------1/3-----------3-----|
B|----------------------------------------------------------------------------------------------------|
G|----------------------------------------------------------------------------------------------------|
D|--0--3-----3--0--3-----3-----3-----3-----3-----3--0--3-----3--0--3-----3-----3-------------3-----3--|
A|--------------------------3-----------3-----------------------------------3-------------3-----------|
E|----------------------------------------------------------------------------------------------------|
    White trashing with you

[Chorus]
E|--------1-----------1-----------0-----------0--|
B|-----------------------------------------------|
G|-----------------------------------------------|
D|--0--3-----3--0--3-----3-----3-----3-----3-----|
A|--------------------------3-----------3--------|
E|-----------------------------------------------| (x8)
And all that glitters is not gold
And this same place is getting old
But dreams are fulfilled where the purple grass grows
And I can see it all just beyond our window

Bb5 C5 D5 C5

[Bridge]
  Bb5                 C5
Inherited your dad’s crazy eyes
 D5                  C5
History repeats our whole damn lives
 Bb5                               C5
Yeah this place gets old but it’s really hard
    D5                          C5          Bb5
To scrub the dog piss out of a white trash heart

[Outro]
Bb5             C5
Empties lined along the porch
 D5                   C5
shoot them dead, show no remorse
Bb5               C5
   White trashing with you

D5 C5

***********************************

| /   Slide-up

***********************************
Suggest correction
Creating personal tab
Creating personal tab
You can edit any tab online and save it as your Personal.

You can edit, replace or remove any tab part or add personal notes – all changes will be seen only by you.

Personal tabs can be accessed anytime from any device, even offline.
Learn more »
Give kudos to tab author, rate the tab!
1 2 3 4 5
comments
print report bad tab
guest
You may want to rate the tab now too:
select rating
Wanna post a correction for this tab? Suggest correction