Oops, an error
Loading. Please wait.

Caprice 24 Tab

version 2
version 2

Whole song

Interactive

64,361 views 165 this week
7 commentsread comments
1 2 3 4 5
excellent!
x 12
add to favorites
launch autoscroll
font size
0
reset
how to read this tab
guitar tuner
Autoscroll
slow
fast
+/-
esc
set tempo
stop
Help us to improve Ultimate-Guitar.com Take our survey!
×
Author
Difficulty
advanced
Nicolo Paganini – Caprice No. 24
--------------------------------

one of the most difficult classical guitar pieces ever.
you must listen to song and play. lot of sweep picking involved here.
good luck!


e|--------------------------------|
B|--------------------------------|
G|-----------------9--------------|
D|--7---7-7-10-9-7----------------|
A|---------------------7-7-11-9-7-|
E|--------------------------------|

e|---------------------------|
B|---------------------------|
G|-----------------9---------|
D|--7---7-7-10-9-7-----------|
A|----------------------7----|
E|---------------------------|

e|--------------------------------|
B|--------------------------------|
G|-----------------9--------------|
D|--7---7-7-10-9-7----------------|
A|---------------------7-7-11-9-7-|
E|--------------------------------|

e|---------------------------|
B|---------------------------|
G|-----------------9---------|
D|--7---7-7-10-9-7-----------|
A|----------------------7----|
E|---------------------------|

e|--------------------------------------|
B|--10---10-10-11-10--------------------|
G|-------------------12-10---7-7-10-9-7-|
D|--------------------------------------|
A|--------------------------------------|
E|--------------------------------------|

e|--------------------------------|
B|--8---8-8-10-8------------------|
G|---------------10-9---5-5-9-7-5-|
D|--------------------------------|
A|--------------------------------|
E|--------------------------------|

e|------------------------------|
B|--6-------------5-------------|
G|------4-4-7-5-4-----2-2-5-4-2-|
D|------------------------------|
A|------------------------------|
E|------------------------------|

e|---------------------------------------------|
B|---------------------------------------4---5-|
G|---------------------------------------------|
D|--3--------------------------------------2---|
A|---------------------------------------------|
E|---------------------------------------------|

e|--12p-----------8----------------7p--4-------|
B|-------------------10-------------------5----|
G|-----------------------9-------------------4-|
D|--------------------------10--7--------------|
A|---------------------------------------------|
E|---------------------------------------------|

e|--12p--8--------------------------|
B|----------10----------------------|
G|--------------9---------9---------|
D|-----------------10--7------------|
A|-----------------------------7----|
E|----------------------------------|

e|--12p--8----------------7p--4--------------|
B|----------10-------------------5-----------|
G|--------------9-------------------4--------|
D|-----------------10--7---------------6-----|
A|----------------------------------------7--|
E|-------------------------------------------|

e|--12p--8--------------------------|
B|----------10----------------------|
G|--------------9---------9---------|
D|-----------------10--7------------|
A|-----------------------------7----|
E|----------------------------------|

e|--17p--12----------------------------------10-|
B|-----------14--------------------------10-----|
G|---------------14------------------10---------|
D|-------------------14--11------12-------------|
A|---------------------------12-----------------|
E|----------------------------------------------|

e|--15p--10-------------------------------8--12-|
B|-----------12------------------------8--------|
G|---------------12-----------------9-----------|
D|-------------------12--9------10--------------|
A|--------------------------10------------------|
E|----------------------------------------------|

e|-------------------------12------------------|
B|--12-------------------------13--------------|
G|------13--10---------------------14----------|
D|--------------12--9------------------14------|
A|---------------------11------------------15--|
E|---------------------------------------------|

e|---------------------------------------------|
B|---------------------------------------------|
G|---------------------------------------------|
D|---------------------------------------------|
A|--14-----------------------------------------|
E|---------------------------------------------|

e|---------------------------------------------|
B|---------------------------------------------|
G|--2--------------------------------------1-2-|
D|---------------------------------------------|
A|---------------------------------------------|
E|---------------------------------------------|

e|--------------------------------|
B|------------0-1-3-5-4-5-4-5-----|
G|--2-1-2-1-2---------------------|
D|-----------------------------2--|
A|--------------------------------|
E|--------------------------------|

e|----------------------------------|
B|------------0-1-3-5-4-5-4-5-3-1-0-|
G|--2-1-2-1-2-----------------------|
D|----------------------------------|
A|----------------------------------|
E|----------------------------------|

e|--------------------------------|
B|------------0-1-3-5-4-5-4-5-----|
G|--2-1-2-1-2---------------------|
D|-----------------------------2--|
A|--------------------------------|
E|--------------------------------|

e|--5-4-5-4-5-3-1-0-----------0-1---|
B|------------------3-2-3-2-3-----3-|
G|----------------------------------|
D|----------------------------------|
A|----------------------------------|
E|----------------------------------|

e|--3-2-3-2-3-1-0---------------0---|
B|----------------3-1-0-1-0-1-3---1-|
G|----------------------------------|
D|----------------------------------|
A|----------------------------------|
E|----------------------------------|

e|--1-0-1-0-1--------------------------|
B|------------3-1-0-5-4-5-4-5-1-0------|
G|--------------------------------2----|
D|-------------------------------------|
A|-------------------------------------|
E|-------------------------------------|

e|------------1p-0-----------------|
B|---------------------------------|
G|--4-3-4-3-4------1-2-1-2-4-2-----|
D|---------------------------------|
A|---------------------------------|
E|---------------------------------|


  (chicken picking)
     .
e|---------------------------------------------|
B|---------------------------------------------|
G|---------------------------------------------|
D|--10-----------------------------------------|
A|---------------------------------------------|
E|---8-----------------------------------------|

     .
e|--------------------------|
B|--------------------------|
G|----------------8--10--9--|
D|--10------7--9------------|
A|----------------6---8--7--|
E|---8------5--7------------|

     .
e|------------------------|
B|------------------------|
G|-------------------9----|
D|--10------7--6--9-------|
A|-------------------7----|
E|---8------5--4--7-------|

     .
e|--------------------------|
B|--------------------------|
G|----------------8--10--9--|
D|--10------7--9------------|
A|----------------6---8--7--|
E|---8------5--7------------|

     .
e|-----------------------------|
B|-----------------------------|
G|--14--------------9--10--11--|
D|----------11--12-------------|
A|--12--------------7---8---9--|
E|-----------9--10-------------|

     .
e|--------------------------|
B|--------------------------|
G|--12-------------7--8--9--|
D|----------9--10-----------|
A|--10-------------5--6--7--|
E|----------7---8-----------|

     .       .
e|-----------------------|
B|-----------------------|
G|--10---------9---------|
D|----------9---------7--|
A|---8---------7---------|
E|----------7---------5--|

e|-------------------------|
B|-------------------------|
G|-----10--9---------------|
D|--9---------6--9----7----|
A|------8--7---------------|
E|--7---------4--7----5----|

e|----------------------------17-16-15-14-------|
B|----------------------------------------18-17-|
G|--14------------------------------------------|
D|----------------------------------------------|
A|----------------------------------------------|
E|----------------------------------------------|

e|-----17-16-15-14-----------------------------|
B|-----------------18-17-16-18-17-16-18-17-----|
G|--14-----------------------------------------|
D|------------------------------------------14-|
A|---------------------------------------------|
E|---------------------------------------------|

e|-----17-16-15-14------------------------------|
B|-----------------18-17-16-18-17-16-18-17------|
G|--14-------------------------------------16---|
D|--------------------------------------------1-|
A|----------------------------------------------|
E|----------------------------------------------|

e|-----17-16-15-14-----------------------------|
B|-----------------18-17-16-18-17-16-18-17-----|
G|--14-----------------------------------------|
D|------------------------------------------14-|
A|---------------------------------------------|
E|---------------------------------------------|

e|-----17-16-15-14------------------------------|
B|-----------------18-17-15-14-17----14-15------|
G|--14----------------------------14-------14---|
D|--------------------------------------------1-|
A|----------------------------------------------|
E|----------------------------------------------|

e|-----15-14-13-12------------------------------|
B|-----------------16-15-13-12-15----12-13------|
G|--12----------------------------12-------12---|
D|--------------------------------------------1-|
A|----------------------------------------------|
E|----------------------------------------------|

e|-----13-12-11-10------------12-11-10-9-------|
B|-----------------14-13-12--------------13-12-|
G|--10----------------------9------------------|
D|---------------------------------------------|
A|---------------------------------------------|
E|---------------------------------------------|

e|----------------------------17----------------|
B|----------------------------------17----------|
G|--10-9-------------------------------17p-14---|
D|-------13-12-11-10--------------------------1-|
A|-------------------14-11-12-------------------|
E|----------------------------------------------|


(chicken picking)

e|--------------------------------11---12------|
B|------------------6---5----------------------|
G|-----------------------------------8----9----|
D|---------------------------------------------|
A|--------------------8---7--------------------|
E|--5-----------------------5--4------------4--|

e|-------------------11---12------|
B|-----6---5----------------------|
G|----------------------8----9----|
D|--------------------------------|
A|-------8---7--------------------|
E|--5----------5--4---------------|

e|-------------------11---12------|
B|-----6---5----------------------|
G|----------------------8----9----|
D|--------------------------------|
A|-------8---7--------------------|
E|--5----------5--4------------4--|

e|-------------------11---12------|
B|-----6---5----------------------|
G|----------------------8----9----|
D|--------------------------------|
A|-------8---7--------------------|
E|--5----------5--4---------------|

e|-----18--------------17----------------------|
B|---------------------------------------------|
G|------------------15----14--------9---10-----|
D|---------------------------------------------|
A|------------------------------------7----8---|
E|--9------------------------9--10-----------8-|

e|-----16----15---------------------|
B|----------------------------------|
G|--------13----12-------8---9------|
D|----------------------------------|
A|-------------------------6---7----|
E|--7--------------7--8----------8--|

e|-----7---6---------------------|
B|-------------------9---10------|
G|-------------------------------|
D|-------9---8---------6----7----|
A|--5----------5--7-----------8--|
E|-------------------------------|

e|------13----12---------8---5------|
B|----------------------------------|
G|---------10----9---------5--------|
D|-----------------------------7----|
A|-----------------7----------------|
E|--10----------------5-------------|

     .
e|--12------10----------------------------|
B|--13---------13-12-10-------------------|
G|----------------------13-10-------------|
D|----------------------------14-12-10----|
A|-------------------------------------14-|
E|----------------------------------------|

     .
e|----------------------------------|
B|----------------------------------|
G|----------------------------------|
D|--10------12-14-12-10-------------|
A|--12------------------14-12-11----|
E|----------------------------12----|

     .
e|--12------10----------------------------|
B|--13---------13-12-10-------------------|
G|----------------------13-10-------------|
D|----------------------------14-12-10----|
A|-------------------------------------14-|
E|----------------------------------------|

     .
e|----------------------------------|
B|----------------------------------|
G|----------------------------------|
D|--10------12-14-12-10-------------|
A|--12------------------14-12-11----|
E|----------------------------12----|

     .
e|----------------------------------12-13-|
B|-------------------------12-14-15-------|
G|----------------10-12-14----------------|
D|--11------12-14-------------------------|
A|--12------------------------------------|
E|----------------------------------------|

     .
e|---------------------------------10-12-|
B|------------------------10-12-13-------|
G|----------------9-10-12----------------|
D|---9------10-12------------------------|
A|--10-----------------------------------|
E|---------------------------------------|

     .          .
e|--13------12-10-12------10----|
B|--15------------13---------13-|
G|------------------------------|
D|------------------------------|
A|------------------------------|
E|------------------------------|

e|----------------------------------|
B|----------------------------------|
G|--10--9---------------------------|
D|--12----12-10----9----------------|
A|--------------12---11-12----0-----|
E|----------------------------------|

e|--12h----13p-12-------------------------------|
B|----------------13----10h-12p-10-12h-13p-12-9-|
G|----------------------------------------------|
D|----------------------------------------------|
A|----------------------------------------------|
E|----------------------------------------------|

e|--12h-13p-12----------------------------------|
B|-------------13-------------------------------|
G|--------------------------------------------1-|
D|------------------------------------2h-3p-2---|
A|-------------------0h-2p-0h-2h-3p-2-----------|
E|----------------------------------------------|

e|--12h-13p-12----------------------------------|
B|-------------13----10h-12p-10-12h-13p-12-9h-1-|
G|----------------------------------------------|
D|----------------------------------------------|
A|----------------------------------------------|
E|----------------------------------------------|

e|--12h-13p-12----------------------------------|
B|-------------13-------------------------------|
G|--------------------------------------------1-|
D|------------------------------------2h-3p-2---|
A|-------------------0h-2p-0h-2h-3p-2-----------|
E|----------------------------------------------|

e|--12h-13p-12------------------10h-12p-10------|
B|-------------14----10h-11p-10-----------------|
G|----------------------------------------------|
D|-----------------------------------------7h-8-|
A|----------------------------------------------|
E|----------------------------------------------|

e|--10h-12p-10----------------8h-10p-8---------|
B|-------------12----8h-10p-8------------------|
G|---------------------------------------------|
D|-------------------------------------5h-7p-5-|
A|---------------------------------------------|
E|---------------------------------------------|

e|--10h-12p-10-13---------------8h-10p-8-12----|
B|---------------------------------------------|
G|---------------------------------------------|
D|---------------------------------------------|
A|---------------------------------------------|
E|-------------------10h-12p-10----------------|

e|--10h-12p-10---------7h-8p-7-----------------|
B|---------------------------------------------|
G|---------------------------------------------|
D|---------------------------------------------|
A|---------------------------------------------|
E|-------------7h-8p-7---------4h-5p-4-5h-7p-5-|

e|-----------------------------------------7--7-|
B|--1--------------------------5--3--1--0--0--0-|
G|--2--------------------------5--4--2--1-------|
D|----------------------------------------------|
A|----------------------------------------------|
E|----------------------------------------------|

e|-----------------5--4--0--|
B|--1--5--3--1--0--4--5--0--|
G|--2--5--4--2--1-----------|
D|--------------------------|
A|--------------------------|
E|--------------------------|

e|-----------------7--7-----|
B|--1--5--3--1--0--0--0--0--|
G|--2--5--4--2--1--------1--|
D|--------------------------|
A|--------------------------|
E|--------------------------|

e|-----------------5--4--0--|
B|--1--5--3--1--0--4--5--0--|
G|--2--5--4--2--1-----------|
D|--------------------------|
A|--------------------------|
E|--------------------------|

e|--------------10--12--13--10--|
B|--2--3--5--2------------------|
G|--2--4--6--2--10--12--14--10--|
D|------------------------------|
A|------------------------------|
E|------------------------------|

e|--------------0--1--3--0--|
B|--0--1--3--0--------------|
G|--------------0--0--0--0--|
D|--0--2--3--0--------------|
A|--------------------------|
E|--------------------------|

e|--1-----0--1--0-----------|
B|--0--3--0--0--1--3--1--2--|
G|-----4-----------4--2--0--|
D|--------------------------|
A|--------------------------|
E|--------------------------|

e|-----5--5--4--5----------|
B|--3----------------------|
G|-----5--5--4--5----------|
D|--3----------------------|
A|-------------------------|
E|-------------------5-----|

e|--8--------------------------------7-4-0-10-7-|
B|----------------10----------------------------|
G|-------------------9-------9------------------|
D|---------------------10------10---------------|
A|------------------------12------12------------|
E|----------------------------------------------|

e|--8--------------------7-4-0----------|
B|----10-----------------------5--------|
G|-------9-------9---------------4------|
D|---------10------10--------------6----|
A|------------12------12-------------7--|
E|--------------------------------------|

e|--8--------------------7-4-0-10-7-0-4-0-|
B|----10----------------------------------|
G|-------9-------9------------------------|
D|---------10------10---------------------|
A|------------12------12------------------|
E|----------------------------------------|

e|--8--------------------7-4-0----------|
B|----10-----------------------5--------|
G|-------9-------9---------------4------|
D|---------10------10--------------6----|
A|------------12------12-------------7--|
E|--------------------------------------|

e|--12-9-------------------------10-------------|
B|-------10-------------------------10----------|
G|----------9--------------------------10-------|
D|------------11--------------------------12----|
A|---------------12p-10-------------------------|
E|----------------------12-13-10-------------13-|

e|--10-7--------------------8------------|
B|-------8--------------------8----------|
G|---------10p-7----------------9--------|
D|---------------9----------------10-----|
A|-----------------8----7------------7---|
E|-------------------10---8------------8-|

e|--7-5-4---------------------------|
B|--------6-5-----------------------|
G|------------7-5-4-----------------|
D|------------------7-5-3-----------|
A|------------------------7-5-3-----|
E|------------------------------7-5-|

e|------5-------7-4-5-------------|
B|--------6-----------5-----------|
G|----------------------5---------|
D|----------6-------------7-------|
A|--8-5-------7-------------0-----|
E|--------------------------------|

     .
e|--17---------20-19-17-------------------|
B|----------17----------21-19-17-19-21-17-|
G|----------------------------------------|
D|----------------------------------------|
A|----------------------------------------|
E|----------------------------------------|

e|--17----L-19-20-22-23---24-------|
B|---------------------------------|
G|---------------------------21----|
D|---------------------------------|
A|---------------------------------|
E|---------------------------------|

     .
e|--17---------20-19-17-------------------|
B|----------17----------21-19-17-19-21-17-|
G|----------------------------------------|
D|----------------------------------------|
A|----------------------------------------|
E|----------------------------------------|

e|--17----L-19-20-22-23---24-------|
B|---------------------------------|
G|---------------------------21----|
D|---------------------------------|
A|---------------------------------|
E|---------------------------------|

e|--17----L-24-21----------------------------|
B|----------------22-20----------------------|
G|----------------------21-18----------------|
D|----------------------------19-17-15-14-12-|
A|-------------------------------------------|
E|-------------------------------------------|

e|--15----L-22-19----------------------------|
B|----------------20-------------------------|
G|-------------------22-19-------------------|
D|-------------------------21-17-------------|
A|-------------------------------20-19-------|
E|-------------------------------------22-20-|

e|--13----L----------------------------------|
B|----------15-12----------------------------|
G|----------------14-13----------------14-12-|
D|----------------------14-12-------14-------|
A|----------------------------14-15----------|
E|-------------------------------------------|

e|-----------------19-16----17----------|
B|-----15-12-------------17-------------|
G|-----------14-13----------------------|
D|--15----------------------------------|
A|--------------------------------0-----|
E|--------------------------------------|

    ^            v ^ v ^ v ^ v
e|--0------------0-0-0-0-0-0-0-----------------|
B|--1------------1-1-1-0-0-1-1---------------5-|
G|--2------------2-2-2-1-1-2-2-------------4---|
D|--2------------2-2-2-2-2-2-2-----------6-----|
A|--0------------0-0-0-2-2-0-0---------7-------|
E|-----------------------------4h----7---------|


    ^ v ^ v ^ v ^ v
e|--0-0-0-0-0-0-0-0---12p---7-------------|
B|--1-1-1-1-3-3-1-1-----------9-----------|
G|--2-2-2-2-2-2-2-2-------------9---------|
D|--2-2-2-2-2-2-2-2---------------9-------|
A|--0-0-0-0-0-0-0-0-----------------11----|
E|------------------4------------------12-|


    ^ v ^ v ^ v ^ v
e|--0-0-0-0-0-0-0-0-----------------4-7-12-16-1-|
B|--1-1-1-1-0-0-1-1---------------5-------------|
G|--2-2-2-2-1-1-2-2-------------4---------------|
D|--2-2-2-2-2-2-2-2-----------6-----------------|
A|--0-0-0-0-2-2-0-0---------7-------------------|
E|------------------4h----7---------------------|


    ^ v ^ v ^ v ^ v
e|--0-0-0-0-0-0-0-0-------12p-7-------------|
B|--1-1-1-1-3-3-1-1-------------9-----------|
G|--2-2-2-2-2-2-2-2---------------9---------|
D|--2-2-2-2-2-2-2-2-----------------9-------|
A|--0-0-0-0-0-0-0-0-------------------11----|
E|------------------4--------------------12-|

     ^
e|---9-----------------------------------------|
B|--10-----------------------------------------|
G|---9-----------------------------------------|
D|---7-----------------------------------------|
A|---0-----------------------------------------|
E|---------------------------------------------|

    ^ v ^ v ^ v  ^  v
e|--7-7-7-7-8-8-10-10---------------------8-12-|
B|--8-8-8-8-5-5--8--8-------------------8------|
G|--7-7-7-7-5-5--0--0-----------------9--------|
D|--5-5-5-5-5-5--9--9--------------10----------|
A|--------------10-10-7-------7-10-------------|
E|--------------------------8------------------|

    ^                             v ^ v ^ v ^ v
e|--1-----------------------------1-1-1-0-0-0-0-|
B|--0-----------------------------0-0-0-1-1-3-3-|
G|--2-----------------------------2-2-2-2-2-2-2-|
D|--0-----------------------------0-0-0-2-2-2-2-|
A|--------------------------------------0-0-0-0-|
E|----------------------------------------------|

e|-------------------------------------8-------|
B|----------------------------------10---------|
G|--------------------------------9----------4-|
D|-----------------------------10----------6---|
A|--------------------------12-----------7-----|
E|--12-----------------------------------------|

e|---------------5----------------------5-10-13-|
B|-------------5---5------------------6---------|
G|-----------6-------6--------------7-----------|
D|---------7-----------7----------7-------------|
A|-------7---------------7---5h-8---------------|
E|--5h-9-------------------9--------------------|

    ^ v  ^  v  ^  ^ ^ v
e|--7-7-10-10-13-13-7-7--------------5---------|
B|--6-6--9--9-12-12-6-6------------5---5-------|
G|--7-7-10-10-13-13-7-7----------5-------5-----|
D|--6-6--9--9-12-12-6-6--------7-----------7---|
A|---------------------------7---------------7-|
E|----------------------5h-8-------------------|

e|---------------5----------------------5-10-13-|
B|-------------5---5------------------6---------|
G|-----------6-------6--------------7-----------|
D|---------7-----------7----------7-------------|
A|-------7---------------7---5h-8---------------|
E|--5h-9-------------------9--------------------|

    ^ v  ^  v  ^  v ^ v
e|--7-7-10-10-13-13-7-7--------------5---------|
B|--6-6--9--9-12-12-6-6------------5---5-------|
G|--7-7-10-10-13-13-7-7----------6-------6-----|
D|--6-6--9--9-12-12-6-6--------7-----------7---|
A|---------------------------7---------------7-|
E|----------------------5h-9-------------------|

e|---------------5h-9p-5------------------------|
B|-------------5---------5--------------------5-|
G|-----------6-------------6----------------6---|
D|---------7-----------------7------------7-----|
A|-------7---------------------7--------7-------|
E|--5h-9-------------------------9-5h-9---------|

e|----------------------12h-17------------------|
B|-------------------14--------17---------------|
G|----------------14--------------18------------|
D|-------------11--------------------19---------|
A|----------12----------------------------------|
E|--5-9-12-----------------------------16h-17---|p

                                  ^
e|--------------------------------5--------|
B|--------------------------------5--------|
G|--------------------------------6--------|
D|--------------------------------7--------|
A|--0h-2p-0h-2p-0h-2p-0h-2--------7--------|
E|-------------------------4h--5--5--------|



************************************

| h  Hammer-on
| p  Pull-off

************************************
Suggest correction
comments
print report bad tab
7 comments total. Showing first comments.
0 reply
urik 223 wrote on October 11 2007, 11:37 am

Just for the record, this is the version played by Jie Li

+1 reply
JOEYPWNSU 40 wrote on January 29 2008, 03:42 pm

awesome tab.... thanks alot for posting it, i had trouble finding a good one.

+1 reply
jtbull 30 wrote on December 16 2008, 12:08 am

nice. I think i will be working on this for a good bit.

guest
You may want to rate the tab now too:
select rating
Wanna post a correction for this tab? Suggest correction