Oops, an error
Loading. Please wait.

Caprice 5 Tab

version 2
version 2

Whole song

Interactive

12,418 views 15 this week
4 commentsread comments
1 2 3 4 5
accurate
x 8
add to favorites
launch autoscroll
font size
0
reset
how to read this tab
guitar tuner
Autoscroll
slow
fast
+/-
esc
set tempo
stop
Help us to improve Ultimate-Guitar.com Take our survey!
×
Author
Difficulty
advanced
This is Paganini’s Agitato in A Minor(Caprice 5 as most know it). The fingering on here
some getting used to and this is just my way of playing it so all the notes are right,
the fingering and string the note is played on is your choice. If you are not great and
looks hard learn it anyway! It’s a great great finger exercise that will improve your
on guitar. This whole thing is played (until the very end) in straight 16th notes, and
in 2/4.

1(bar #, so you can find where you left off more easily)
e|-------------------|-------------------|-------------------|-------------------|
B|o------------------|-------------------|-------------------|-------------------|
G|-------------------|-------------------|-------------------|-------------------|
D|-------------------|----7-5-3----------|-------------------|----7-5-3----------|
A|o---3-7-3---5-7-5--|--3-------7-5------|----3-7-3---5-7-5--|--3-------7-5------|
E|--5-------7--------|--------------8-7--|--5-------7--------|--------------8-7--|

5
e|-------------------|-------------------|-------------------|-------------10-12-|
B|-------------------|-------------------|-------------------|---------9-12------|
G|-------------------|-------------------|-------------------|-------9-----------|
D|-------------------|-------------------|--------------7----|---6-9-------------|
A|----4-7-4---5-8-5--|------8-------7----|------8-5-------6--|-7-----------------|
E|--5-------5--------|--3-7---7-3-8---8--|--4-7-----8-5------|-------------------|

9
e|-------------------|-------------------|-------------------|-------------------|
B|-------------------|---10-8-6----------|-------------------|---10-8-6----------|
G|----5-9-5---7-9-7--|--5-------9-7------|----5-9-5---7-9-7--|--5-------9-7------|
D|--7-------9--------|-------------10-9--|--7----------------|-------------10-9--|
A|-------------------|-------------------|-------------------|-------------------|
E|-------------------|-------------------|-------------------|-------------------|

13                                                            W/pick and fingers..
e|-------------------|------7-5----------|-------------------|-------------------|
B|---------10-8------|----------8-6------|-------------------|-------------------|
G|----6-9-6----10-9--|--6-7---------9-7--|--5\4--------------|------5-------4----|
D|--7----------------|-------------------|------7-5-4-5-7-3--|----5-------3------|
A|-------------------|-------------------|-------------------|--7-----7-5-----5--|
E|-------------------|-------------------|-------------------|-------------------|

17..............................................|             Sweep picking.......
e|-------------------|-------------------|-------------------|-------------------|
B|-------------------|-------------------|-------------------|--------3-------5--|
G|------2-------0----|-------------------|----------------5--|------4-------5----|
D|----2-------0------|------3-------3----|------3-----2-5----|----3-------5------|
A|--3-----3-2-----2--|----3-------3------|----2---2-3--------|--5-------7--------|
E|-------------------|--5-----5-4-----4--|--3----------------|-------------------|

21........|
e|-------------------|-------------------|----8-7-5----------|----7-5-3----------|
B|--------6----------|----8-5-----6------|----------8-6------|--6-------7-5-4-0--|
G|------5-----8-5----|--0-----5-0---7-4--|--5-----------9----|-------------------|
D|----7-----4-----7--|-------------------|----------------5--|-------------------|
A|--8----------------|-------------------|-------------------|-------------------|
E|-------------------|-------------------|-------------------|-------------------|

25
e|----5-3-1----------|----3-1-0----------|-------------------|------------5-8----|
B|--5-------5-3------|--3-------3-1------|----6-5-3----------|----------7-----7--|
G|--------------6-2--|--------------4-0--|--5-------5-4------|------5-8----------|
D|-------------------|-------------------|--------------7-5--|--4-7--------------|
A|-------------------|-------------------|-------------------|-------------------|
E|-------------------|-------------------|-------------------|-------------------|

29
e|--8-3--------------|--7-3--------------|----8-7-6-5-4-3-2--|-------------------|
B|------5------------|-------------------|-------------------|--6-5-4-3----------|
G|--------5----------|------7-4----------|-------------------|----------6-5-4-3--|
D|----------5-2------|----------5-0------|-------------------|-------------------|
A|--------------3----|--------------2----|--3----------------|-------------------|
E|----------------3--|----------------3--|-------------------|-------------------|

33
e|-------------------|-------------------|-------------------|-------------------|
B|-------------------|-------------------|-------------------|-------------------|
G|-------------------|-------------------|-------------------|-------------------|
D|--7-6-5-4----------|------7-5---5-3-0--|------------5-3-0--|------------5-3-0--|
A|----------8-7-6-5--|--3-7-----2--------|--3-7---7-2--------|--3-7---7-2--------|
E|-------------------|-------------------|------3------------|------3------------|

37               I can understand not wanting to repeat it too! Haha.
e|-------------------|-------------------|-------------------|-------------------|
B|-------------------|------------------o|-------------------|-------------------|
G|-------------------|-------------------|-------------------|-------------------|
D|------------3------|-------------------|----5-2------5-2---|-------------------|
A|--3-7-5-3-2---5-2--|--0-3-2-0---5-2---o|--3-----3-1------1-|--0-8-3-0---7-2----|
E|-------------------|----------4-----4--|-------------------|----------3-----3--|

41
e|-------------------|-------------------|-------------------|-------------------|
B|----6-------5------|-------------------|-------------------|-------------------|
G|------5-------6----|----7-------6------|----7-------5------|-------------------|
D|--------7-5-----5--|------7-------5----|------7-------7----|----8-------7------|
A|-------------------|--8-----8-7-----7--|--8-----8-6-----6--|--5---8-5-----6----|
E|--5----------------|-------------------|-------------------|----------8-----8--|

45
e|-------------------|-------------------|-------------------|-------------------|
B|--11---------10----|-------------------|-------------------|-------------------|
G|----10---------11--|---12--------11----|---12--------10----|-------------------|
D|-------12-10-----10|-----12--------10--|-----12--------12--|--13---------12----|
A|-------------------|13-----13-12-----12|13-----13-11-----11|10--13-10------11--|
E|10-----------------|-------------------|-------------------|----------13-----13|

49
e|---11--------10----|-------------------|-------------------|-------------------|
B|-----11--------12--|---13--------12----|--13-12-11---------|-------------------|
G|-------12-10-----10|-----12--------10--|-----------14131211|-10-9-8-7----------|
D|-------------------|13-----13-12-----12|10-----------------|---------11-10-9-8-|
A|10-----------------|-------------------|-------------------|-------------------|
E|-------------------|-------------------|-------------------|-------------------|

53
e|-------------------|-------------------|----4-3-2----------|-------------------|
B|-------------------|-------------------|----------6-5-4-3--|-------------------|
G|-------------------|-------------------|-------------------|--6-5-4-3----------|
D|--7-6-5-4----------|------6-5---5------|-------------------|----------7-6-5-4--|
A|----------8-7-6-5--|----6---------8-5--|--3----------------|-------------------|
E|-------------------|--8-------7--------|-------------------|-------------------|

57
e|-------------------|-------------------|-------------------|-------------------|
B|-------------------|-------------------|-------------------|-------------------|
G|-------------------|-------------------|----1--------------|----3-------1------|
D|--3-2-1-0----------|------3-1---1------|------1-----4-1----|------3-------3-0--|
A|----------4-3-2-1--|----3---------4-1--|--------3-0-----3--|--1-----4-2--------|
E|-------------------|--4-------3--------|--4----------------|-------------------|

61
e|-------------------|----------------6--|--4-1--------------|-------------------|
B|-------------------|------------5------|-------------------|-------------------|
G|----5-------3------|--------5-----5----|------5-1-----1----|--------------6----|
D|------5-------5----|----5-2---5--------|----------2-3---3--|----------7-8---8--|
A|--3-----6-4-----4--|-------------------|-------------------|--6-4--------------|
E|-------------------|--6----------------|-------------------|------8-6----------|

65
e|-------------------|-------------------|-------------------|-------------------|
B|------------4-8-4--|--9-5--------------|-------------------|-------------------|
G|----------7--------|------5------------|-------------------|----6-5-3----------|
D|--6-5--------------|--------6-5-6-4----|----3-6-3---4-6-4--|--3-------6-4------|
A|------8-6----------|----------------6--|--4-------6--------|--------------8-6--|
E|-------------------|-------------------|-------------------|-------------------|

69
e|-------------------|-------------------|-------------------|-------------------|
B|-------------------|-------------------|-------------------|-------------------|
G|--------------3----|------4------------|-------------------|----8-7-5----------|
D|----3-6-3---6---6--|----6---6---4-8-4--|----5-8-5---6-8-6--|--5-------8-6------|
A|--4-------4--------|--5-------6--------|--6-------8--------|-------------10-8--|
E|-------------------|-------------------|-------------------|-------------------|

73
e|-------------------|-------------------|-------------------|-------------------|
B|-------------------|-------------------|-------------------|-------------------|
G|--------------6----|------6------------|----8------10------|----10------11-8---|
D|----5-8-5---8---8--|----8---8--6-10-6--|-----10------11-8--|------12--------8--|
A|--6-------6--------|--7-------8--------|--9-----9-8--------|--11----11\9-------|
E|-------------------|-------------------|-------------------|-------------------|

77
e|-------------------|-------------7-11--|-------------------|--------------4-7--|
B|-------------------|-------------------|-------------------|-------------------|
G|----9--------------|---------8-11------|----6--------------|----------4-8------|
D|-----11-8----------|--------9----------|------8-5----------|--------6----------|
A|--9-------9-7------|----6-9------------|--6-------6-4------|----2-6------------|
E|--------------9-6--|--7----------------|--------------6-3--|--4----------------|

81
e|-------------------|-------------------|-------------------|-------------------|
B|-------------------|-------------------|-------------------|-------------------|
G|-------------------|----4-9-4---5-9-5--|---6-11-6--8-11-8--|---8-13-8---9-15-9-|
D|----6-9-6---7-9-7--|--6-------7--------|--8-------9--------|-10-------11-------|
A|--7-------9--------|-------------------|-------------------|-------------------|
E|-------------------|-------------------|-------------------|-------------------|

85
e|-------------------|-------------------|-------------------|-------------------|
B|-------------------|-------------------|-------------------|-------------------|
G|--11-16-11-13-16-13|--12-15-12-11-16-11|--10-13-10---9-14-9|---8-11-8---7-12-7-|
D|13-------14--------|14-------13--------|12---------11------|-10-------9--------|
A|-------------------|-------------------|-------------------|-------------------|
E|-------------------|-------------------|-------------------|-------------------|

89
e|-------------------|-------------------|-------------------|-------------------|
B|-------------------|-------------------|-------------------|-------------------|
G|----6-9-6--5-10-5--|--10-13-10---9-14-9|---8-11-8---7-12-7-|---7-12-7--7-13-7--|
D|--8-------7--------|12---------11------|-10-------9--------|--8-------8--------|
A|-------------------|-------------------|-------------------|-------------------|
E|-------------------|-------------------|-------------------|-------------------|

93
e|--------------12-16|-------------------|--------------12-16|-------------------|
B|-------------------|-------------------|-----12-17---------|--13-17-13-15-17-15|
G|---------13-16-----|--14-19-14-14-20-14|----------13-16----|14-------16--------|
D|----9-14-----------|15-------15--------|14-18--------------|-------------------|
A|7-11---------------|-------------------|-------------------|-------------------|
E|-------------------|-------------------|-------------------|-------------------|

97
e|--17-15-13---------|-------------------|--17-15-13---------|--15-13-12---------|
B|13-------17-15-----|--13-17-13-15-17-15|13-------17-15-----|15-------15-13-----|
G|--------------17-16|14-------16--------|--------------18-14|--------------16-12|
D|-------------------|-------------------|-------------------|-------------------|
A|-------------------|-------------------|-------------------|-------------------|
E|-------------------|-------------------|-------------------|-------------------|

101
e|--13-12-10---------|--12-10-8----------|---10-8-7----------|----8--------------|
B|13-------13-12-----|12--------12-10----|-10-------10-8-----|-----10-7----------|
G|--------------14-10|---------------13-9|--------------10-9-|--8-------8-5------|
D|-------------------|-------------------|-------------------|--------------7----|
A|-------------------|-------------------|-------------------|----------------6--|
E|-------------------|-------------------|-------------------|-------------------|

105
e|--8-5--------------|--7-4--------------|----5-4-3----------|-------------------|
B|-------------------|-------------------|----------7-6-5-4--|-------------------|
G|------9-5----------|------7-4----------|-------------------|--7-6-5-4----------|
D|----------7-2------|----------6-0------|-------------------|----------8-7-6-5--|
A|--------------3-0--|-------------------|-------------------|-------------------|
E|-------------------|--------------7-4--|--5----------------|-------------------|

109
e|-------------------|-------------------|-------------------|-------------------|
B|-------------------|-------------------|o------------------|------------------o|
G|-------------------|-------------------|-------------------|-------------------|
D|--4-3-2-1----------|------3-2---2------|------------2------|------------2------|
A|----------5-4-3-2--|----3---------5-2--|o---3-2-5-3-----2--|----3-2-5-3-----2-o|
E|-------------------|--5-------4--------|--5-----------4----|--5-----------4----|

113
e|-------------------|-------------9-12--|--17---------------|-(17---------------|
B|-------------------|-------------------|--14---------------|-------------------|
G|-------------------|---------9-14------|-------------------|-(14)--------------|
D|-------------------|-----7-11----------|--14---------------|-(14)--------------|
A|--0----------------|--4-7--------------|-------------------|-------------------|
E|-------------------|-------------------|-------------------|-------------------|
(For the 0 on A in bar 113 I think Paganini was being nice and let your fingers have
½ of a second’s rest haha)

There you are. Have fun and use this to warm up your fingers when you sit down to play.
ROCKS!

-Peter
Suggest correction
What's this?
You can suggest a correction to this tab. Community and Mods will review your correction and vote to approve or reject it.
comments
print report bad tab
4 comments total. Showing first comments. show 1 bad comment
0 reply
towk667 520 wrote on April 24 2007, 10:17 pm

Who FUCKING cares who wrote it? It's on UG now and that is all that FUCKING matters dumbass!

0 reply
odb56 101 wrote on November 27 2007, 09:40 am

youre right mister sir sucks dick..

guest
You may want to rate the tab now too:
select rating
Please do not post tabs as comments. Select "correction" instead!