Oops, an error
Loading. Please wait.

Caprice No 24 Tab

version 1
version 1
1,121 views 18 this week
no commentswrite comment
1 2 3 4 5
1 last vote to show rating
add to favorites
launch autoscroll
font size
0
reset
how to read this tab
guitar tuner
×
Best way to learn
"Caprice No 24"
Autoscroll
slow
fast
+/-
esc
set tempo
stop
Niccolo Paganini: Caprice No.24
Arranged for classical guitar by Gerald Garcia
CD : 'Romantic Guitar Favourites' (Paganini, Mendelssohn, Schubert)
by Gerald Garcia, 1992

four parts

 0:00-56
e|---------------------------------|----|
B|---------5---------------5-------|----|
G|-2--225424-------2--225424-------|-0/-|
D|-2-------6----64-2-------6-------|-/0-|
A|-3----------77--73-----------7---|----|
E|-5---------------5---------------|----|

e|-5--5565---------3--3353----------------------------------------|
B|-5------86----65-3------65----53-6-------5---------4553---------|
G|-6-------7--77--74-------5--55--5---447545----54---22--42-------|
D|---------7---------------5-------7-------7--77--73--2-----------|
A|---------5---------------3-------5-------7------------------0---|
E|-5---------------3----------------------------------------------|

e|-5--5565---------3--3353----------------------------------------|
B|-5------86----65-3------65----53-6-------5---------4553---------|
G|-6-------7--77--74-------5--55--57----75-2--22542--22--42-------|
D|---------7---------------5-------8--88--8--------3--2-----------|
A|---------5---------------3-------5-------3------------------0---|
E|-5---------------3----------------------------------------------|

   _______             _____           _______
e|----8-12-8-------------4-7-4------------8-12-8---------------------|----|
B|-10--------10\-5-----5-------5-------10--------10\-5-----5---------|----|
G|-----------------5-------------4---------------------5---4---------|-0/-|
D|-------------------7-------------6---------------------7-6---------|-/0-|
A|-(0)-------------------------------7-(0)-----------------7---------|----|
E|---------------------(0)---------------------------------------0---|----|
  ________                                ________
|----12-17-12-----------------------10-13----10-15-10--------------------8-12-|
|-14----------14\-10-------------10-------12----------12\-8------------8------|
|--------------------9------7-10----------0-----------------7--------9--------|
|----------------------11-0-----------------------------------9---10----------|
|-(0)-------------------------------------------------------------------------|
|---------------------------------------------------------------8-------------|
  _____                  ____
|-13p10------------------12p8------------------1---0-------------|-----|
|-------12--------------------10-----------0-3-------------------|-----|
|----------13-10-----------------9-5-----------------1-2---------|-0//-|
|----------------12-9----------------7-----0-----2---------------|-//0-|
|---------------------11---------------7---------------------0---|-----|
|----------------------------------------8-----------------------|-----|
...

 2:25-52
e|------17-16-15-14-13-12-11-13p12-11-13-12-7--------|
B|--------------------------------------------9------|
G|-14-------------------------------------------9/13-|
D|---------------------------------------------------|
A|---------------------------------------------------|
E|---------------------------------------------------|

e|------17\-16-15-14-13-12-11-13-12-11-13-12--------|-----|
B|--------------------------------------------------|-----|
G|-14-------------------------------------------9---|-0//-|
D|--------------------------------------------------|-//0-|
A|--------------------------------------------------|-----|
E|--------------------------------------------------|-----|

e|------17-16-15-14-13-12-10-9-12----9-10-----------|
B|--------------------------------10------10--------|
G|-14----------------------------------------10\-7/-|
D|--------------------------------------------------|
A|--------------------------------------------------|
E|--------------------------------------------------|

e|-----15-14-13-12-11-10-8-7-10---7-8--------|
B|------------------------------8-----8------|
G|-12-----------------------------------9-5/-|
D|-------------------------------------------|
A|-------------------------------------------|
E|-------------------------------------------|

e|----13-12-11-10-9-8-7----12-11-10-9-8-7-5-|
B|------------------------------------------|
G|-10-------------------9-------------------|
D|------------------------------------------|
A|------------------------------------------|
E|------------------------------------------|

e|---------------------17-12---------------|
B|-6p5-----------------------13----5-------|
G|-----8-7-6p5-4----------------14---5-----|
D|---------------6---------------------7..-|
A|-----------------12----------------------|
E|-----------------------------------------|
...

 3:55-5:35
e|-12h13p12--------5h7p5-7h8p7-4h5p4-0h1p0------|
B|----------13----------------------------------|
G|----------------------------------------------|
D|-----------------------------------------2----|
A|----------------------------------------------|
E|----------------------------------------------|

e|-12h13p12---------------------------------------|-12..----|
B|----------13------------------------------------|---------|
G|------------------------------------------------|-----0//-|
D|------------------------------------------------|-----//0-|
A|-----------------0h2p0-2h3p2-7h8p7-11h12p11-----|-0..-----|
E|--------------------------------------------0---|---------|


e|-12h13p12-----------------10h12p10---------------------|
B|----------14-----10h11p10------------------------------|
G|-------------------------------------------------------|
D|-----------------------------------7h8p7-3h5p3-0h2p0---|
A|-0-----------------------------------------------------|
E|-------------------------------------------------------|

e|-10h12p10---------------8h10p8-------------------|
B|----------12-----8h10p8--------------------------|
G|-------------------------------------------------|
D|-------------------------------5h7p5-2h3p2-------|
A|-10----------------------------------------3h5p3-|
E|-------------------------------------------------|

e|-10h12p10-13--------------8h10p8-12-------------|
B|------------------------------------------------|
G|------------------------------------------------|
D|------------------------------------------------|
A|------------------------------------------------|
E|-10--------------10h12p10----------------8h10p8-|

e|-10h12p10-------7h8p7-------------5h7p5-----|-------|
B|--------------------------------------------|-------|
G|--------------------------------------------|-0////-|
D|--------------------------------------------|-////0-|
A|--------------------------------------------|-------|
E|----------7h8p7-------4h5p4-5h7p5-------5---|-------|

e|-0---0---0---0---0---7--7---0---0---0---0---0---0---5---5---0---|
B|-1---5---3---1---0---0--0---0---1---5---3---1---0---4---4---0---|
G|-2---5---4---2------------------2---5---4---2-------------------|
D|-----------------6------4---6-------------------6---3---2---2---|
A|---------------------7------------------------------------------|
E|----------------------------------------------------------------|

e|----0--0-0-0-0-0-0-0-0-7-7-7-0-0-0-0-0-0-0-0-0-0-0-0-0-5-5-4-4-0--|
B|---1----5---3---1---0---0---5---0---1---5---3---1---0---4---5---0-|
G|--2---5---4---2-------------------2---5---4---2------------------1|
D|------------------6-------4---6-------------------6---3---2---2---|
A|-0--------------------7-------------------------------------------|
E|------------------------------------------------------------------|

e|---------0--0--0-0-10--10-12--12-13--13-10--10|
B|----3---5--5----------------------------------|
G|---4---7--6--6--6----10-----12-----14-----10--|
D|--5---9-------7---0------0------0------0------|
A|-0--------------------------------------------|
E|----------------------------------------------|

e|-----------------0-0-1-1-3-3-0-0----------------|
B|-0-0-1-1-3-3-0-0-----------------6-6-3-3-5-5-6-6|
G|------------------0---0---0---0---4---4---4---4-|
D|--0---2---3---0-----0---2-------0---0---0---0---|
A|----------------3-----------3-------------------|
E|3---3---3---3-----------------------------------|

e|--0----------------------5-5---5----5454---5-------------|
B|---10-3---1-1-2-2---3----------------------5-------------|
G|-------4---0---0----------5----5-----------5-------------|
D|--------4-----------3------------------------------------|
A|-3---2---0---0------5---6------7-----------7-------------|
E|-----------------------------------0---------------5-----|

 'pizzicato'
e|-8p5-------------7p4---10p7-------8p5-------------7p4-------------|----|
B|-----5-----5---------5--------9-------5-----5---------5-5---------|----|
G|-------5-----5--------------9---9-------5-----5-----------4-------|-0/-|
D|---------7-----7--------------------------7-----7-----------6-----|-/0-|
A|--------------------------------------------------------------7---|----|
E|------------------------------------------------------------------|----|

e|-12p9-5p0-------------10------------10p7-----------------8-----------|
B|-------------------------10-6------------8p6---------------8-5-------|
G|----------6p2-----------------7--------------7p4---------------5-----|
D|--------------5p2-3p0----------------------------3p0-----------------|
A|--------------------------------8p5------------------7p3---------7p3-|
E|---------------------------------------------------------------------|

e|-7-5-4------------------------------=---------------5p0---------|-----|
B|-------6\5-3-------------------------10p6------12p9-------------|-----|
G|-------------5-4-2-0------------------------------------5-------|-0//-|
D|---------------------3-2-0--------------------------------7-----|-//0-|
A|---------------------------3-2-0-8p5------11p7--------------0---|-----|
E|----------------------------------------------------------------|-----|
...

 6:13-
e|---0---0---0---0-------___-----7-12-|
B|---1---1---0---0---__----0---9------|
G|---2-2-2---1-2------1---1--9--------|
D|-2---2---2---2---------2------------|
A|-3---3---2---0-----2-2--------------|
E|-----------------4------------------|

e|---0---0---7---5---0-12-7---0-------|-----|
B|-----------5---5---0------9---0-----|-----|
G|---2---2-------5----------------1---|-0//-|
D|-----------6------2---------------2-|-//0-|
A|-3---3------------------------------|-----|
E|---------7---5---4------------------|-----|

                                ___
e|---9----9-----10----12---___----5----5-10-|
B|--------------------10-----6---6---6------|
G|---9----9-----10----------7---7--7--------|
D|-------------------------7--7-------------|
A|---12---12----12-------5------------------|
E|-9----9----10----12-----------------------|

e|---7---7----8---10-----------____--------8-|
B|-----------------0---_____------8------8---|
G|---7---7----9----0-------9-----9-----9-----|
D|---5---5---10----------10----10---10-------|
A|---------------------10---10---------------|
E|-7---7---8----10---8-----------------------|

e|----10----10---8---7---5/---7---8-----14---|
B|-------------------5---5/---9---10----13---|
G|----10----10---9-------5/---7---9-----14---|
D|----9-----9----7---6-----------------------|
A|-------------------------------------------|
E|-10----10----8---7---5----7---8----11------|

e|---------5-8------------4-7-|
B|-------5--------------5-----|
G|-----5--------------4-------|
D|---7--------------6---------|
A|-7--------------------------|
E|---------------0------------|

e|-------------5-----------------------5-----------------------------------10--|
B|-----------5---5-------------------5---5---------------------10-------10-----|
G|---------5-------5---------------6-------6----------------10-------10--------|
D|-------7-----------7-----------7-----------7---------7-12-------12-----------|
A|-----7---------------7-------7---------------7-4-5/8-------------------------|
E|-5h8-------------------8-5h9-------------------------------------------------|

e|-----7-------10--------13-------7---|-----|
B|-----6--------9--------12-------6---|-----|
G|-----7-------10--------13-------7---|-0//-|
D|------------------------------------|-//0-|
A|------------------------------------|-----|
E|-4-------7--------10--------4-------|-----|

e|-------------5--------------------------5--9-5------------|
B|-----------5---5---------------------5---------5----------|
G|---------5-------5-----------------6-------------6--------|
D|-------7-----------7-------------7-----------------7------|
A|-----7---------------7--------7----------------------7----|
E|-5h9-------------------9--5h9--------------------------9--|

e|------------------9-12-9-----------------|
B|---------------10--------10--------------|
G|----------6/-9--------------9\--6--------|
D|--------7-------------------------7------|
A|-----7------------------------------7----|
E|-5h9----------------------------------9--|

e|------------------9/-12--17p12-9----------------------|
B|---------------10----------------10-------------------|
G|----------6/-9----------------------9---6-------------|
D|--------7---------------------------------7-----------|
A|-----7--------------------------------------7-4--0----|
E|-5h9--------------------------------------------------|

e|---------------------------------------------------5---|
B|---------------------------------------------------5---|
G|-3--2--3--2--3-2-3----3p2h3---3p2h3---3p2h3--------6---|
D|---------------------------------------------------7---|
A|-------------------0--------1-------0--------------7---|
E|--------------------------------------------4--5---5---|
Transcription by Pinter Denes
(dpinter@eik.bme.hu)

0/                     0///
/0 : repeat last bar   ///0 : repeat last three bars

|----___---|
|----5-7---| shorter notes
|----------|

Note: many pull off and hammer on are unsigned


From: letostak@netcom.com (Judy Letostak)

Nicolo Paganini
Caprice No. 24 Opus 1
letostak@netcom.com

e|----------------------|----------------------|----------------------------|
B|-------------------3--|-5p4h5p4--5-----------|-------------------3--------|
G|-2p1h2p1--2--4--5-----|-------------7--5--4--|-2p1h2p1--2--4--5-----------|
D|----------------------|----------------------|----------------------------|
A|----------------------|----------------------|----------------------------|
E|----------------------|----------------------|----------------------------|


e|-------------------|-5p4h5p4--5--------------|----------------------------|
B|-5p4h5p4--5--------|-------------8--6--5-----|-------------5--6-----------|
G|-------------------|-------------------------|-7p6h7p6--7--------7--------|
D|-------------7-----|-------------------------|----------------------------|
A|-------------------|-------------------------|----------------------------|
E|-------------------|-------------------------|----------------------------|


e|----------------------|----------------------|----------------------------|
B|-8p7h8p7--8--6--5-----|----------------5-----|-6p5h6p5--6-----------------|
G|-------------------7--|-5p4h5p4--5--7-----5--|-------------7--5--4--------|
D|----------------------|----------------------|----------------------------|
A|----------------------|----------------------|----------------------------|
E|----------------------|----------------------|----------------------------|


e|----------------------|----------------------|----------------------------|
B|-5p4h5p4--5-----------|-------------6--5-----|----------------------------|
G|-------------5--4-----|-4p3h4p3--4-----------|----------------------------|
D|-------------------7--|-------------------6--|-7p6h7p6--7-----------------|
A|----------------------|----------------------|----------------------------|
E|----------------------|----------------------|----------------------------|
Suggest correction
Give kudos to tab author, rate the tab!
1 2 3 4 5
comments
print report bad tab
guest
You may want to rate the tab now too:
select rating
Wanna post a correction for this tab? Suggest correction