Oops, an error
Loading. Please wait.

At The Wheel Tab

1 view 1 this week
no commentswrite comment
1 2 3 4 5
2 more votes to show rating
add to favorites
launch autoscroll
font size
0
reset
how to read this tab
guitar tuner
Autoscroll
slow
fast
+/-
esc
set tempo
stop
Help us to improve Ultimate-Guitar.com Take our survey!
×
Author
Difficulty
intermediate
[Intro]
e|--------------------------------------------------------------------------------------|
B|--------------------------------------------------------------------------------------|
G|----8------11-----------8-------4-------4-------8-----------8-------8---6-------6-----|
D|----9-------9-----------9-----------6-------6-----------9-------9-----------8-------8-|
A|--------------------------------------------------------------------------------------|
E|--------------------------------------------------------------------------------------|

e|-----------------------------|
B|-----------------------------|
G|----8-----------4-------6----|
D|----7-----------6-------5----|
A|-----------------------------|
E|-----------------------------| (x3)

 [Verse 1]
e|--------------------------------------------------------------------4-----------------------0--|
B|-----------------------------------12------13------14------15-------5-------7-------7-------0--|
G|---11------12------13------14---------------------------------------6-------5-------6-------1--|
D|--------------------------------------------------------------------6-------7-------7-------2--|
A|--------------------------------------------------------------------4---------------0-------2--|
E|--------------------------------------------------------------------------------------------0--|

e|--------------------------------------------------------------------------------------|
B|--------------------------------------------------------------------------------------|
G|----8------11-----------8-------4-------4-------8-----------8-------8---6-------6-----|
D|----9-------9-----------9-----------6-------6-----------9-------9-----------8-------8-|
A|--------------------------------------------------------------------------------------|
E|--------------------------------------------------------------------------------------|

e|-----------------------------|
B|-----------------------------|
G|----8-----------4-------6----|
D|----7-----------6-------5----|
A|-----------------------------|
E|-----------------------------| (x2)

e|--------------------------------------------------------------------4-----------------------0--|
B|-----------------------------------12------13------14------15-------5-------7-------7-------0--|
G|---11------12------13------14---------------------------------------6-------5-------6-------1--|
D|--------------------------------------------------------------------6-------7-------7-------2--|
A|--------------------------------------------------------------------4---------------0-------2--|
E|--------------------------------------------------------------------------------------------0--|

 [Outro]
e|----------------------------------------------------------|
B|---12--12--12-------------------9---9---9---9-------------|
G|---------------11--11--11--11-------------------8---8---8-|
D|----------------------------------------------------------|
A|----------------------------------------------------------|
E|----------------------------------------------------------| (x8)

e|--------------------------------------------------------------|
B|--------------------------------------------------------------|
G|----9---9---9---9---9--11--11--11-------8-----------6---6---8-|
D|----------------------------------------9-----------7---7---9-|
A|----7---7---7---7---7---9---9---9-------9-----------7---7---9-|
E|----------------------------------------7-----------5---5---7-|

 Guitar 1:
e|--------------------------|
B|--------------------------|
G|----8-----------6---6---8-|
D|----9-----------7---7---9-|
A|----9-----------7---7---9-|
E|----7-----------5---5---7-| (x2)
Guitar 2:

e|--------------------0--------|
B|------------9----------------|
G|----------------8------------|
D|----9------------------------|
A|-----------------------------|
E|-----------------------------|

e|----------------------------------|
B|----------------------------------|
G|----9---9---9---9---9--13--13--13-|
D|----------------------------------|
A|----7---7---7---7---7--11--11--11-|
E|----------------------------------|

 Guitar 1:
e|--------------------------|
B|--------------------------|
G|----8-----------6---6---8-|
D|----9-----------7---7---9-|
A|----9-----------7---7---9-|
E|----7-----------5---5---7-| (x3)
Guitar 2:

e|--------------------0--------|
B|------------9----------------|
G|----------------8------------|
D|----9------------------------|
A|-----------------------------|
E|-----------------------------|

e|----------------------------------|
B|----------------------------------|
G|----9---9---9---9---9--13--13--13-|
D|----------------------------------|
A|----7---7---7---7---7--11--11--11-|
E|----------------------------------|

Guitar 1:

e|--------------------------|
B|--------------------------|
G|----8-----------6---6---8-|
D|----9-----------7---7---9-|
A|----9-----------7---7---9-|
E|----7-----------5---5---7-| (x2)

Guitar 2:

e|-------------------0--------|
B|-----------9----------------|
G|---------------8------------|
D|---9------------------------|
A|----------------------------|
E|----------------------------|

e|----------------------------------|
B|----------------------------------|
G|----9---9---9---9---9---9---8---8-|
D|----------------------------------|
A|----7---7---7---7---7---7---6---6-|
E|----------------------------------|
Suggest correction
Give kudos to tab author, rate the tab!
1 2 3 4 5
comments
print report bad tab
guest
You may want to rate the tab now too:
select rating
Wanna post a correction for this tab? Suggest correction