Oops, an error
Loading. Please wait.

Contagious bass

152 views 1 this week
no commentswrite comment
1 2 3 4 5
1 last vote to show rating
add to favorites
×
Save as Personal and add changes to this tab that will be seen only by you. Learn more ›
×
You can save this tab as Personal to edit and correct it or add notes. All changes will be seen only by you. Learn more »
launch autoscroll
font size
0
reset
guitar tuner
edit
Autoscroll
slow
fast
+/-
esc
set tempo
stop
Author
Difficulty
I had the timing perfect and the export F'ed it up. If you have any sort of ear for      
rhythm you'll get this quicker than it took me to write it up. Awesome song- I want to   
dislike it, and I can't.

Intro/Verse 1
  
|--------------------------------------------|
|--------------------------------------------|
|-4-1-4-6-4-4-1-4-6-4-4-1-4-6-4-4-1-4-6-4----|
|--------------------------------------------|

Chorus 

|-------------------------------------|
|-------------------------------------|
|-1-----------------4--1--4-3----3----|
|----------2------------------4-------|

Break

|---------------------------------------------------|
|-------------1-1-----(1)---------------------------|
|-1-1-----(1)-------------4-4-----(4)---------------|
|-------------------------------------4-4----(4)----|

Verse 2 (This timing is tricky to write but easy to hear. Listen)

|-----------------------------------|------------|
|-----------------------------------|------------|
|-1-1-1-1-----4-4-4-4-----6---6-----|-1-1-1-1----|
|-----------------------------------|------------|

Chorus repeats, then...

Bridge (Crystals in the night... whatever that means)

|-------------------------|
|-------------------------|
|-1-3-4--4-1-------3-3----|
|-------------4-4---------|

Another Chorus and you're done! Easy Peasy!

If this tab helped you out you could do me a favor by checking out 
www.wearedovercourt.com 

Peace!

            
            
Suggest correction
Creating personal tab
Creating personal tab
You can edit any tab online and save it as your Personal.

You can edit, replace or remove any tab part or add personal notes – all changes will be seen only by you.

Personal tabs can be accessed anytime from any device, even offline.
Learn more »
Give kudos to tab author, rate the tab!
1 2 3 4 5
comments
print report bad tab
guest
You may want to rate the tab now too:
select rating
Wanna post a correction for this tab? Suggest correction