Oops, an error
Loading. Please wait.

Glory Days Tab

1,285 views 1 this week
no commentswrite comment
1 2 3 4 5
3 more votes to show rating
add to favorites
launch autoscroll
font size
0
reset
how to read this tab
guitar tuner
Autoscroll
slow
fast
+/-
esc
set tempo
stop
Help us to improve Ultimate-Guitar.com Take our survey!
×
Difficulty
intermediate
-------------------------------------------------------------------------------
                          Glory Days - Nightingale
-------------------------------------------------------------------------------
Tabbed by: milk_dud

Tuning:EADGBe

e|------------------------------------------13----13-------------------------|
B|-18b20-18-16----18b20-18-16----16-13--16b----16b------13-11-13 11~---------|
G|-------------17-------------17-------------------------------------13-12---|
D|---------------------------------------------------------------------------|
A|---------------------------------------------------------------------------|
E|---------------------------------------------------------------------------|

e|----------------------------------------------11-------------11-----------|
B|-----------------------------------13-------------13-11-------------------|
G|-10~----8-7-5~----------8h10--10h12----12-13~------------12-10----8~--8-5-|
D|------------------8h10----------------------------------------------------|
A|--------------------------------------------------------------------------|
E|--------------------------------------------------------------------------|

e|---------------11----------------------------13---------------------------|
B|--------6h8/11-----11h13-13-13-11---11h13-16----18b20~--------11----------|
G|----5h8---------------------------12-------------------/10h12---12-13-12--|
D|-8------------------------------------------------------------------------|
A|--------------------------------------------------------------------------|
E|--------------------------------------------------------------------------|

e|--------------------------------------------------------------------------|
B|--------------------------------------------------------------------------|
G|-10-----------------------------------------------------------------------|
D|-----13-12-10~--------------8~--------------------------------------------|
A|----------------10-8-6-8/10-----------------------------------------------|
E|--------------------------------------------------------------------------|


| /  slide up
|   slide down
| h  hammer-on
| p  pull-off
| ~  vibrato
| +  harmonic
| x  Mute note
===============================================================================
Suggest correction
Give kudos to tab author, rate the tab!
1 2 3 4 5
comments
print report bad tab
guest
You may want to rate the tab now too:
select rating
Wanna post a correction for this tab? Suggest correction