Oops, an error
Loading. Please wait.

Gianism Bachi Bass Tab

1,097 views 1 this week
no commentswrite comment
1 2 3 4 5
please rate
add to favorites
launch autoscroll
font size
0
reset
guitar tuner
Autoscroll
slow
fast
+/-
esc
set tempo
stop
Help us to improve Ultimate-Guitar.com Take our survey!
×
Author
Difficulty
advanced
This tab is arranged for  1&1/2 step down

E :----12h14---9-7----|7h9----7h9-------14-|
B :------ ---------95-|- ------ -----------|
F#:--7--- ------------|- -7-7-- -7-7-12----|
C#:0----- ---0--------|- ------ -----------| 
   s s p     s p p ss  p  s s p  s s s  p

E :----12h14----12--- ---14-|1414-1414-1414-1414-------|
B :------ ----------- ------|1414-1414-1414-1414-------|
F#:--7--- ---10----10s12----|--------------------------| 
C#:0----- ----------- ------|--------------------12\---| 
   s s p     s  p  s     p   p p  p p  p p  p p  f
   
Enjoy !
Suggest correction
Give kudos to tab author, rate the tab!
1 2 3 4 5
comments
print report bad tab
guest
You may want to rate the tab now too:
select rating
Please do not post tabs as comments. Select "correction" instead!