Oops, an error
Loading. Please wait.

Tokyo Shounen Bass Tab

version 1
version 1

Whole song

Interactive

3,710 views 1 this week
no commentswrite comment
1 2 3 4 5
excellent!
x 2
add to favorites
launch autoscroll
font size
0
reset
guitar tuner
Tab Pro tools
  • play this tab
  • loop segment
  • change instrument
  • show fretboard
  • metronome
Autoscroll
slow
fast
+/-
esc
set tempo
stop
Contributor
Difficulty
intermediate
-------------------------------------------------------------------------------
			     Tokyo Shounen - nightmare
-------------------------------------------------------------------------------

Tabbed By : Matosh.lee
e-mail: Matosh.lee@gmail.com



Tuning: Eb,Ab,Db,Gb
[Intro]
G|---------------------------------------------------------------------------|
D|---------------------------------------------------------------------------|
A|--------------------------------------------------------------------7------|
E|-------------------------------------00303535-66565535-00303535h6656-653---|

G|---------------------------------------------------------------------------|
D|---------------------------------------------------------------------------|
A|-------------------------------7-------------------------------------------|
E|00303535-66565535-00303535h6656-653----------------------------------------|

G|---------------------------------------------------------------------------|
D|---------------------------------------------------------------------------|
A|------------------------------------7--------------------------------------|
E|-3-3-00303535-66565535-00303535h6656-653-----------------------------------|

G|---------------------------------------------------------------------------|
D|---------------------------------------------------------------------------|
A|--------------------------------7------------------------------------7-----|
E|-00303535-66565535-00303535h6656-653--00303535-66565535-00303535h6656-653--|


"he starts to sing"
[verse]
G|---------------------------------------------------------------------------|
D|---------------------------------------------------------------------------|
A|------------------------------------7--------------------------------------|
E|-3-3-00303535-66565535-00303535h6656-653-----------------------------------|

G|---------------------------------------------------------------------------|
D|---------------------------------------------------------------------------|
A|--------------------------------7-----------------------------------7------|
E|-00303535-66565535-00303535h6656-653-00303535-66565535-00303535h6656-653---|

G|---------------------------------------------------------------------------|
D|---------------------------------------------------------------------------|
A|--------------------------------7-----------------------------------7------|
E|-00303535-66565535-00303535h6656-653-00303535-66565535-00303535h6656-653--3|

[Pre-chorus]
           S             S      P      S             S      P
G|------------------------------5---------------------------5----------------|
D|---------5\------------5h4-2-2-------5\------------5h4-2-2-----------------|
A|----3-33----3-33-3\-2-2---------3-33----3-33-3\-2-2------------------------|
E|---------------------------------------------------------------------------|

G|---------------------------------------------------------------------------|
D|-------------------------------2-------------------------------------------|
A|-3--------------------2--2-0-2---2-0-2-3-33333333333333--------------------|
E|---------3-2-33-3-2-3----------------------------------3-33333333333333----|

G|---------------------------------------------------------------------------|
D|-----------------2-22222222222-2-2-----------------------------------------|
A|-2-22222222222222----------------------------------------------------------|
E|---------------------------------------------------------------------------|

[chorus]

G|---------------------------------------------------------------------------|
D|---------------------------------------------------------------------------|
A|-----3-----02320-20--------3----2-0-----------3-----02320-20--------2------|
E|0--------03-----3--2--0-------------3-2--0--------03-----3--2--3-----------|

[solo]

G|---------------------------------------------------------------------------|
D|---------------------------------------------------------------------------|
A|---------------------------------7-----------------------------------7-----|
E|--00303535-66565535-00303535h6656-653-00303535-66565535-00303535h6656-653--|

G|---------------------------------------------------------------------------|
D|---------------------------------------------------------------------------|
A|----3----5---------2--2--3----5-------------3----5---------2--2--3----2222-|
E|--------------3--------------------0------------------3--------------------|

[Pre-chorus]
           S             S      P      S             S      P
G|------------------------------5---------------------------5----------------|
D|---------5\------------5h4-2-2-------5\------------5h4-2-2-----------------|
A|----3-33----3-33-3\-2-2---------3-33----3-33-3\-2-2------------------------|
E|---------------------------------------------------------------------------|

G|---------------------------------------------------------------------------|
D|-------------------------------2-------------------------------------------|
A|-3--------------------2--2-0-2---2-0-2-3-33333333333333--------------------|
E|---------3-2-33-3-2-3----------------------------------3-33333333333333----|

G|---------------------------------------------------------------------------|
D|----------------------------44---------------------------------------------|
A|-2-22222222222222--22-222-22-----------------------------------------------|
E|---------------------------------------------------------------------------|


[chorus]

G|---------------------------------------------------------------------------|
D|---------------------------------------------------------------------------|
A|-----3-----02320-20--------3----2-0-----------3-----02320-20--------2------|
E|0--------03-----3--2--0-------------3-2--0--------03-----3--2--3-----------|

G|---------------------------------------------------------------------------|
D|--2-4-5-2-0-----2-5--------------------------------------------------------|
A|-----------3-5--------02320-20--------3----2-0------2-4-5-2-0-----2-5------|
E|--------------------03-----3--2--0-------------3-2-----------3-5-----------|

[outro]

G|---------------------------------------------------------------------------|
D|---------------------------------------------------------------------------|
A|----02320-20-2-----------------------------------7-------------------------|
E|--03-----3--2-----00303535-66565535-00303535h6656-653--00303535-66565535---|
                             (bend to a 6 on the 5 when it goes up twice)
G|---------------------------------------------------------------------------|
D|-----------------------------------------------------------------------3---|
A|--------------7----7-------------------1-1313-13443433----1-1313-3h4434-431|
E|-00303535h6656-653--653-6-45^-5^/5---33-3---------------33-3---------------|

G|---------------------------------------------------------------------------|
D|------------------------------------3--------------------------------------|
A|----1-1313-13443433----1-1313-3h4434-431-44-4444---------------------------|
E|--33-3---------------33-3-----------------------3--------------------------|



| /  slide up
| \  slide down
| h  hammer-on
| p  pull-off
| ~  vibrato
| +  harmonic
| x  Mute note
| S  Slap
| P  Pop
===============================================================================
comments
We did not receive enough feedback on this tab! Please rate:
print report bad tab
1 2 3 4 5
I want to post or [tab]
guest
You may want to rate the tab now too:
select rating
Please do not post tabs as comments. Select "correction" instead!