Oops, an error
Loading. Please wait.

Varuna Bass Tab

version 1
version 1

Whole song

Interactive

637 views 1 this week
no commentswrite comment
1 2 3 4 5
please rate
add to favorites
launch autoscroll
font size
0
reset
guitar tuner
Tab Pro tools
  • play this tab
  • loop segment
  • change instrument
  • show fretboard
  • metronome
×
Best way to learn
"Varuna"
Autoscroll
slow
fast
+/-
esc
set tempo
stop
Contributor
Difficulty
intermediate
-0--1--0--1--0--1~-|
-------------------|
-------------------|
-------------------|

-11111111-333333-555555-------       x2 (Second time without the last and "333333-|)
-----------------------3333333----------------------------------------------------|
----------------------------------------------------------------------------------|
----------------------------------------------------------------------------------|

---5------------3-|
-7-----2--3--2----|
------------------|
------------------|

-11111111-333333-555555-------       x2  (Second time without the last and "333333" and "555555--|)
-----------------------3333333-------------------------------------------------------------------|
-------------------------------------------------------------------------------------------------|
-------------------------------------------------------------------------------------------------|

-33--5--3----5------5-------   x4   -33--5--3-----5------5--------3~-|
---------7-----------5--3---        -----------7-------------5--3----|
-----------------5----------        ------------------5--------------|
----------------------------        ---------------------------------|

-11111--44444--33333--00000--55555--11111--44444--33333--00000--55555-5-5-5-|
----------------------------------------------------------------------------|
----------------------------------------------------------------------------|
----------------------------------------------------------------------------|

-11111--66666--8--------------------------|
------------------6--8--------8--------10-|
------------------------6--8-----6--9-----|
------------------------------------------|

-11111--33333--00000~-|
----------------------|
----------------------|
----------------------|

-11111111-333333-555555-------       x2  (Second time without the last and "333333-|)
-----------------------3333333-----------------------------------------------------|
-----------------------------------------------------------------------------------|
-----------------------------------------------------------------------------------|

---5------------3-|
-7-----2--3--2----|
------------------|
------------------|

-11111111-333333-555555-------       x2 (Second time without the last and "333333" and "555555--|)
-----------------------3333333------------------------------------------------------------------|
------------------------------------------------------------------------------------------------|
------------------------------------------------------------------------------------------------|
                                       In 4 time play this:
-33--5--3-----5------5---------   x4   -33--5--3-----5------5-------3~-|
----------7-------------5--3---        -----------7-------------5--3---|
-----------------5-------------        ------------------5-------------|
-------------------------------        --------------------------------|

-11111//66666//11111//4--------//11111//444444//55555-----------------------------33-33-3~--|
-------------------------33333-----------------------44444//2//55555//11111//33333----------|
--------------------------------------------------------------------------------------------|
--------------------------------------------------------------------------------------------|

-0//12//1~//5~
--------------|
--------------|
--------------|

-11111//33333//11111//55555--7--------------------------|
-------------------------------5--7--------7---------9--|
--------------------------------------5--7-----5--8-----|
--------------------------------------------------------|

-11111//44444--00--00-0~--0//12~-|
---------------------------------|
---------------------------------|
---------------------------------|

-------------------------------------------------|
-------------------------------------------------|
-12//15151515--171717--121212--151515--121212//0-|
-------------------------------------------------|

-11111111--333333--555555--------|
-------------------------3333333-|
---------------------------------|
---------------------------------|

-11111--33333-------------------3-|
---------------7--5--7--2--3--2---|
----------------------------------|
----------------------------------|

-11111111--333333--555555---------|
-------------------------3333333--|
----------------------------------|
----------------------------------|

-11111s
-------|
-------|
-------|
                                     In 4 time play this:
-33--5--3----5--3----5-------   x4   -33--5--3-----5------5-------3~-|
---------7------------5--3---        -----------7-------------5--3---|
------------------5----------        ------------------5-------------|
-----------------------------        --------------------------------|

// = Slide
s = Stop
~ = Let The Note Ring

Most part in the tab, I wrote only five times a number, this isn't the real time, I 
only this because if not would be very large. Listen the music and catch the time.

Any english mistake sorry, I'm brazilian, fault of my teacher or the Google translater  ^^
By: Log4n
comments
We did not receive enough feedback on this tab! Please rate:
print report bad tab
1 2 3 4 5
I want to post or [tab]
guest
You may want to rate the tab now too:
select rating
Please do not post tabs as comments. Select "correction" instead!