Oops, an error
Loading. Please wait.

World Bass Tab

version 1
version 1

Whole song

Interactive

12,354 views 9 this week
1 commentread comment
1 2 3 4 5
accurate
x 5
add to favorites
launch autoscroll
font size
0
reset
guitar tuner
Autoscroll
slow
fast
+/-
esc
set tempo
stop
Help us to improve Ultimate-Guitar.com Take our survey!
×
Author
Difficulty
intermediate
Hey, I couldn't find the tabs for this song so I made some myself.

(/=Slide)    (h=hammer on)     (B=break(quater/half note etc)) (~=hold note)
(?=I'm not sure if its right lol.)   !!!(101010= ten ten ten, not 1-0)!!!


Intro x1|  | Chorus x2 |
G|-----| -------------------------------------------------------------|
D|-----| -------------------------------------------------------------|
A|-----| -22-/975--------7h5---------5h3-----1111---22-/975-----7h5-7-|
E|2-222| ----------55-/-----7---33--/----2222----------------55-/-----|

                            | Pre Verse Thing x 2 |
G|-------------------------|------------------------------------------|
D|-------------------------|-------------------------------?553-------|
A|-------------------------|-------------------------------------55555|
E|1010101010101010-99999999|7777777777-9910101212/-33333333-----------|

                                             | Ending on second time |
G|-----------------------------------------|---------------------------|
D|-----------------------------------------|---------?8-9-11-----------|
A|555555555457---1010101010101010-99999999-|-9-999999------------------|
E|-----------------------------------------|------------------77-55-33~|

    | Verse x1 |
G|---------------------------------------------------------------------|
D|---------------------------------------------------------------------|
A|22222222222222--------------22222222-------575--5----22222222222222--|
E|--------------33333333333333--------5555555---7--753---------------33|


G|---------------------------------------------------------------------|
D|---------------------------------------------------------------------|
A|-------------55555555-457-99999975----------2--------------55555555-5|
E|333333333333-----------------------333333333--5555P33333333----------|


G|---------------------------------------------------------------------|
D|---------------------------------------------------------------------|
A|753----------2222222222----------55555457----------------------------|
E|---2222222222----------3333333333--------89998999/22222-222----------|


  | Chorus x2 |
G|-------------------------------------------------------------|
D|-------------------------------------------------------------|
A|-22-/975--------7h5---------5h3-----1111---22-/975-----7h5-7-|
E|---------55-/-----7---33--/----2222----------------55-/------|

                             | Breakdown into Solo x1
G|-------------------------| -------------------------------------------|
D|-------------------------| -------------------------------------------|
A|-------------------------| ------2--53---75----75--------2------------|
E|1010101010101010-99999999| 332233--5--5-7--75-5--5-332233-2~----------|

(During guitar solo, play the Pre verse thing)

       | Guitar solo breakdown x 1 |    | pre chorus x1|
G|------------------------------------|---------------------------------|
D|------------------------------------|---------------------------------|
A|--------------------------------5---|--------55555555753-22222222-----|
E|77-55-77-55P77-55-77-55-75-75-75-753|33333333--------------------33333|


G|------------------------------------------------------------|
D|------------------------------------------------------------|
A|3333-575-----------55555555457-999999999--------------------|
E|---------2222222222---------------------22222222-2-222-2-222|

(The play the Chorus, Breakdown, then the chorus with this ending)

G|-------------------------------------------------|
D|9-----9------------------------------------------|
A|-99h11-------141412-----------------8911---------|
E|---------1212------14-10101010-9999-------77-55--|

Enjoy x
Suggest correction
comments
print report bad tab
1 comment total.
0 reply
BassEar 10 wrote on November 11 2009, 05:30 pm

I'll note that this tab is worth learning to get the basic concept of the song, but the song has much more fill-ins which aren't in here.....whenever I was playing to this I'm constantly hearing fills that weren't in the tab.....also some of the notes in the verse are a bit confusing to play...but overall i think you did a nice job...

guest
You may want to rate the tab now too:
select rating
Please do not post tabs as comments. Select "correction" instead!