Oops, an error
Loading. Please wait.

World Tab

version 1
version 1

Solo

Interactive

26,909 views 6 this week
7 commentsread comments
1 2 3 4 5
accurate
x 7
add to favorites
launch autoscroll
font size
0
reset
how to read this tab
guitar tuner
Autoscroll
slow
fast
+/-
esc
set tempo
stop
Help us to improve Ultimate-Guitar.com Take our survey!
×
Author
Thought i'd give this a shot since no one else has tabbed it here.

This is my first ever tab i tried my best, i think this is pretty much it, there's
a few mistakes especially at the start, if there is please tell me so i can correct it.

!!![UPDATE]!!! 23rd october 2007

I made a few corrections, I think everything is correct now, please give feedback on 
tab so i know its 100% accurate.

b = bend
r = release
T = tap
/ = slide up
\ = slide down
h = hammer
p = pull off
PH = pinch harmonic
~~ = vibrato

   PH
E|-------------------------------------------------------|
B|-------------------------------------------------------|
G|-9b----9b--9b--9br-7-6---7-6----7-6--------------------|
D|-----------------------------9------7--9-\5~~----------|
A|-------------------------------------------------------|
E|-------------------------------------------------------|

E|-------------------------------------------------------|
B|-/15-15-14-15-17-17b~~--/15-15-14-15-19-18~~-----------|
G|-------------------------------------------------------|
D|-------------------------------------------------------|
A|-------------------------------------------------------|
E|-------------------------------------------------------|

Loop the parts in brackets and tap it however many times it is, i dont really know lol.
Tap howver you tap, dont just try and copy what is in the brackets, just fret whatever 
in the brackets.

             
E|-/12h14-(h19p14h19p14p12h14)---(h14p10h14p10p9h10)-----|
B|-------------------------------------------------------|
G|-------------------------------------------------------|
D|-------------------------------------------------------|
A|-------------------------------------------------------|
E|-------------------------------------------------------|

E|-------------------------------------------------------|
B|-17b-18-17br--/15-14-15--------------------------------|
G|-------------------------16~~---18-16------------------|
D|---------------------------------------16~~------------|
A|-------------------------------------------------------|
E|-------------------------------------------------------|

E|------------------------------------------14-15-17b~~--|
B|-/17b---17br-15-14---------------14-15-17--------------|
G|--------------------16~~--14-16------------------------|
D|-------------------------------------------------------|
A|-------------------------------------------------------|
E|-------------------------------------------------------|


E|-19-17-17-19-17-17-17---17b~~--------------------------|
B|-------------------------------------------------------|
G|-------------------------------------------------------|
D|-------------------------------------------------------|
A|-------------------------------------------------------|
E|-------------------------------------------------------|

and there you have it! rate and comment tab please! Ejoy playing!

Prinnysquad/ragonork9999
Suggest correction
comments
print report bad tab
7 comments total. Showing first comments.
-1 reply
jorelluis 10 wrote on December 11 2007, 04:53 am

sir can you add some chords???
or lyrics!(joke!)
Power Chords!!

+3 reply
prinnysquad 35 wrote on December 12 2007, 09:24 am

sorry mate i dont know them, i could probably work them out, but by that time you probably would have worked it out
yourself already anyways.

+3 reply
guitargurl317 62 wrote on February 15 2008, 03:47 pm

I luv this song!! Thank u so much 4 posting this. Nightmare rocks

guest
You may want to rate the tab now too:
select rating
Please do not post tabs as comments. Select "correction" instead!