Oops, an error
Loading. Please wait.

World Bass Tab

version 2
version 2

Whole song

Interactive

2,097 views 12 this week
3 commentsread comments
1 2 3 4 5
excellent!
x 4
add to favorites
launch autoscroll
font size
0
reset
guitar tuner
Tab Pro tools
  • play this tab
  • loop segment
  • change instrument
  • show fretboard
  • metronome
×
Best way to learn
"World"
Autoscroll
slow
fast
+/-
esc
set tempo
stop
Contributor
Difficulty
novice
with the help of ideas from Josh7307, thanks bro.

(/=Slide)    (h=hammer on)           (~=hold note)
(?=I'm not sure if its right lol.)  (101010= ten ten ten, not 1-0)


Intro x1|  | Chorus x2 |
G|-----| -------------------------------------------------------------|
D|-----| -------------------------------------------------------------|
A|-----| -22-/975--------7h5---------5h4-----1111---22-/975-----7h5-7-|
E|2-222| ----------55-/-----7---33--/----2222----------------55-/-----|

G|-------------------------|   repeat that^
D|-------------------------| 
A|10101010-9999999---------| 
E|-------------------------|

    | Verse x1 |
G|---------------------------------------------------------------------|
D|----------------------------554--------------------------------------|
A|22222222222-4-57----------------555555555-44557-999999989--975-------|
E|-----------------33333333333-----------------------------------------|

G|---------------------------------------------------------------------|
D|----------------------554----------------------------899-11----------|
A|222222222-4-57-------------555555555-44557-99999989------------------|
E|---------------3333333--------------------------------------77-5-33--|


G|---------------------------------------------------------------------|
D|---------------------------------------------------------------------|
A|222222------22222-(444)?-7575402--22222-----555554455779999-5-7------|
E|------3333333---------------------------3333-------------------------|


G|---------------------------------------------------------------------|
D|---------------------------------------------------------------------|
A|------5----------------555557575--------22222-----5555-4579999989----|
E|77777--5555555-- 33333------------222222-----3333--------------------|


  | Chorus x2 |
G|-------------------------------------------------------------|
D|-------------------------------------------------------------|
A|-22-/975--------7h5---------5h3-----1111---22-/975-----7h5-7-| 
                                        
comments
print report bad tab
3 comments total.
0 reply
tedwardgibbs wrote on April 20 2013, 03:12 pm

Thanks! I love Death Note, and I'm really happy that someone tabbed this :D

0 reply
tedwardgibbs wrote on April 20 2013, 04:20 pm

But I definitely wouldn't say this is novice... lol :P

0 reply
Adrianmomo wrote on September 26 2013, 10:53 pm

yeahhh wuju

I want to post or [tab]
guest
You may want to rate the tab now too:
select rating
Please do not post tabs as comments. Select "correction" instead!