Oops, an error
Loading. Please wait.

7 Days To The Wolves Tab

version 1
version 1

Whole song

Interactive

11,392 views 12 this week
2 commentsread comments
1 2 3 4 5
please rate
add to favorites
launch autoscroll
font size
0
reset
how to read this tab
guitar tuner
Autoscroll
slow
fast
+/-
esc
set tempo
stop
Help us to improve Ultimate-Guitar.com Take our survey!
×
Tuning
D G C F A D
-----------------------------------------------------------------
7 Days to the Wolves - Nightwish
-----------------------------------------------------------------
Tabbed by: Daniel Paxton-Zahra

My first tab.. i know its not 100%.. during the chorus..
but enjoy!! and someone help with the solo!!!!

Email: danpaxto@hotmail.com
Tuning: DGCFAD
0.12

D|---------------------------------------------------------------|
A|---------------------------------------------------------------|
F|-------------5~-------------------5---7-7----------------------|
C|--2-2--22----5~--------2-2--22----5---7-7----------------------|
G|--2-2--22----3~--------2-2--22----3---5-5----------------------|
D|--0-0--00--------------0-0--00---------------------------------|
         **                   **

D|---------------------------------------------------------------|
A|---------------------------------------------------------------|
F|-------------5~------------------5---7-------------------------|
C|--2-2--22----5~--------22~-------5---7-------------------------|
G|--2-2--22----3~--------22~-------3---5-------------------------|
D|--0-0--00------~-------00~-------------------------------------|
         **                   
^ play both x2

0.37

D|------------------------------------------------------------------|
A|------------------------------------------------------------------|
F|------------------------------------------------------------------|
C|--22-2-22-22-22---22-2-22-22----------2-2-22-22---2244-22-22-222--|
G|--22-2-22-22-22---22-2-22-22--5-3-----2-2-22-22---2244-22-22-222--|
D|--00-0-00-00-00---00-0-00-00------7*--0-0-00-00---0022-00-00-000--|
    ** * ** ** **   ** * ** **          * * ** **   **** ** ** ***

D|------------------------------------------------------------------|
A|------------------------------------------------------------------|
F|------------------------------------------------------------------|
C|--22-2-22-22-22---22-2-22-22----------2-2-22-22---22-22--22-22----|
G|--22-2-22-22-22---22-2-22-22--5-3-----2-2-22-22---22-22--22-22----|
D|--00-0-00-00-00---00-0-00-00------7*--0-0-00-00---00-00--00-00----|
    ** * ** ** **   ** * ** **          * * ** **   ** **  ** ** 

1.02

D|---------------------|
A|---------------------|
F|---------------------|
C|--4--4---------------|
G|--4--4---------------|
D|--2--2---------------|


Chorus

D|---------------------------------------------------------------------------|
A|---------------------------------------------------------------------------|
F|---------------------------------------------------------------------------|
C|--5--555—5~--5-5--------4-44-4~--88-88-88--8-5-555-5--5-5--------4-44-4-8~-|
G|--5--555—5~--5-5--------4-44-4~--88-88-88--8-5-555-5--5-5--------4-44-4-8~-|
D|--3--333—3~--3-3-6p5\1--2-22-2~--66-66-66--6-3-333-3--3-3-6p5\1--2-22-2-6~-|
       ***                  **                   ***                 **
     
1.28

D|---------------------------------------------------------------|
A|---------------------------------------------------------------|
F|---------------------------------------------------------------|
C|--2-22-22------------------------------------------------------|
G|--2-22-22------------------------------------------------------|
D|--0-00-00-7*---------------------------------------------------|
    * ** ** 

1.31

D|------------------------------------------------------------------|
A|------------------------------------------------------------------|
F|------------------------------------------------------------------|
C|--22-2-22-22-22---22-2-22-22----------2-2-22-22---2244-22-22-222--|
G|--22-2-22-22-22---22-2-22-22--5-3-----2-2-22-22---2244-22-22-222--|
D|--00-0-00-00-00---00-0-00-00------7*--0-0-00-00---0022-00-00-000--|
    ** * ** ** **   ** * ** **          * * ** **   **** ** ** ***

D|------------------------------------------------------------------|
A|------------------------------------------------------------------|
F|------------------------------------------------------------------|
C|--22-2-22-22-22---22-2-22-22----------2-2-22-22---22-22--22-22----|
G|--22-2-22-22-22---22-2-22-22--5-3-----2-2-22-22---22-22--22-22----|
D|--00-0-00-00-00---00-0-00-00------7*--0-0-00-00---00-00--00-00----|
    ** * ** ** **   ** * ** **          * * ** **   ** **  ** ** 

1.56

D|---------------------|
A|---------------------|
F|---------------------|
C|--4--4---------------|
G|--4--4---------------|
D|--2--2---------------|

Chorus

D|---------------------------------------------------------------------------|
A|---------------------------------------------------------------------------|
F|---------------------------------------------------------------------------|
C|--5--555—5~--5-5--------4-44-4~--88-88-88--8-5-555-5--5-5--------4-44-4-8~-|
G|--5--555—5~--5-5--------4-44-4~--88-88-88--8-5-555-5--5-5--------4-44-4-8~-|
D|--3--333—3~--3-3-6p5\1--2-22-2~--66-66-66--6-3-333-3--3-3-6p5\1--2-22-2-6~-|
       ***                  **                   ***                 **

2.22

D|---------------------------------------------------------------------------|
A|---------------------------------------------------------------------------|
F|---------------------------------------------------------------------------|
C|--5--555—5~--5-5--------4-44-4~--8~~-----5-555-5--5-5--------4-44-4--8~~~--|
G|--5--555—5~--5-5--------4-44-4~--8~~-----5-555-5--5-5--------4-44-4--8~~~--|
D|--3--333—3~--3-3-6p5\1--2-22-2~--6~~-----3-333-3--3-3-6p5\1--2-22-2--6~~~--|
       ***                  **               ***                 **

^ played under solo.. haven’t figured it out solo yet







2.46

D|---------------------------------------------------------------|
A|---------------------------------------------------------------|
F|-------------5~-------------------5---7-7----------------------|
C|--2-2--22----5~--------2-2--22----5---7-7----------------------|
G|--2-2--22----3~--------2-2--22----3---5-5----------------------|
D|--0-0--00--------------0-0--00---------------------------------|
         **                   **

D|---------------------------------------------------------------|
A|---------------------------------------------------------------|
F|-------------5~------------------5---7-------------------------|
C|--2-2--22----5~--------22~-------5---7---2~~~------------------|
G|--2-2--22----3~--------22~-------3---5---2~~~------------------|
D|--0-0--00------~-------00~---------------0~~~------------------|
         **               




3.34

D|----------------------------------------------------------------------------------|
A|----------------------------------------------------------------------------------|
F|----------------------------------------------------------------------------------|
C|--9-9-9-9-999-99-9-9-9-9-999-9999-99-9-9--8-8-8-8-8888-88-8-8-8-8-888-8888-88-89--|
G|--9-9-9-9-999-99-9-9-9-9-999-9999-99-9-9--8-8-8-8-8888-88-8-8-8-8-888-8888-88-89--|
D|--7-7-7-7-777-77-7-7-7-7-777-7777-77-7-7--6-6-6-6-6666-66-6-6-6-6-666-6666-66-67--|
    * * * * *** ** * * * * *** **** ** * *  * * * * **** ** * * * * *** **** ** *

D|-------------------------------------------------------------------------|
A|-------------------------------------------------------------------------|
F|-------------------------------------------------------------------------|
C|--9-9-9-9-999-99-9-9-9-9-999-9999-99-9-9-5-5-5-5-5555-77-7-7-7-7-777-77--|
G|--9-9-9-9-999-99-9-9-9-9-999-9999-99-9-9-5-5-5-5-5555-77-7-7-7-7-777-77--|
D|--7-7-7-7-777-77-7-7-7-7-777-7777-77-7-7-3-3-3-3-3333-33-5-5-5-5-555-55--|
    * * * * *** ** * * * * *** **** ** * * * * * * **** ** * * * * *** **


D|----------------------------------------------------------------------------------|
A|----------------------------------------------------------------------------------|
F|----------------------------------------------------------------------------------|
C|--9-9-9-9-999-99-9-9-9-9-999-9999-99-9-9--8-8-8-8-8888-88-8-8-8-8-888-8888-88-89--|
G|--9-9-9-9-999-99-9-9-9-9-999-9999-99-9-9--8-8-8-8-8888-88-8-8-8-8-888-8888-88-89--|
D|--7-7-7-7-777-77-7-7-7-7-777-7777-77-7-7--6-6-6-6-6666-66-6-6-6-6-666-6666-66-67--|
    * * * * *** ** * * * * *** **** ** * *  * * * * **** ** * * * * *** **** ** *


D|-------------------------------------------------------------------------|
A|-------------------------------------------------------------------------|
F|-------------------------------------------------------------------------|
C|--9-9-9-9-999-99-9-9-9-9-999-9999-99-9-9-5-5-5-5-5555-77-7-7-7-7-777-77--|
G|--9-9-9-9-999-99-9-9-9-9-999-9999-99-9-9-5-5-5-5-5555-77-7-7-7-7-777-77--|
D|--7-7-7-7-777-77-7-7-7-7-777-7777-77-7-7-3-3-3-3-3333-33-5-5-5-5-555-55--|
    * * * * *** ** * * * * *** **** ** * * * * * * **** ** * * * * *** **

4.02

D|-----------------------------------------------------------------------------------------|
A|-----------------------------------------------------------------------------------------|
F|-----------------------------------------------------------------------------------------|
C|--5-5-5-5-555-55-5-5-5-5-555-5555-55-5-5--5-5-5-5-5555-55-5-5-5-5-555-5555-55---7--5—2---|
G|--5-5-5-5-555-55-5-5-5-5-555-5555-55-5-5--5-5-5-5-5555-55-5-5-5-5-555-5555-55---5--3—0---|
D|--3-3-3-3-333-33-3-3-3-3-333-3333-33-3-3--3-3-3-3-3333-33-3-3-3-3-333-3333-33------------|
    * * * * *** ** * * * * *** **** ** * *  * * * * **** ** * * * * *** **** **
  
D|-----------------------------------------------------------------------------------------|
A|-----------------------------------------------------------------------------------------|
F|-----------------------------------------------------------------------------------------|
G|--2-2-2-2-222-22-2-2-2-2-222-2222-22-2-2--2-2-2-2-2222-22-2-2-2-2-222-2222-22---7--5—2---|
G|--2-2-2-2-222-22-2-2-2-2-222-2222-22-2-2--2-2-2-2-2222-22-2-2-2-2-222-2222-22---5--3—0---|
D|--0-0-0-0-000-00-0-0-0-0-000-0000-00-0-0--0-0-0-0-0000-00-0-0-0-0-000-0000-00------------|
    * * * * *** ** * * * * *** **** ** * *  * * * * **** ** * * * * *** **** ** 

4.16

D|---------------------------------------------------------------|
A|---------------------------------------------------------------|
F|---------------------------------------------------------------|
C|---------------------------------------------------------------|
G|--2-22-2-2-2-222-2-2-22-2222-22-22-2222-22---------------------|
D|--0-00-0-0-0-000-0-0-00-0000-00-00-0000-00---------------------|
    * ** * * * *** * * ** **** ** ** **** **
4.20

D|---------------------------------------------------------------|
A|---------------------------------------------------------------|
F|---------------------------------------------------------------|
C|---------------------------------------------------------------|
G|---2-tremolo---7-tremolo---4-tremolo—--6-tremolo---2-tremolo---|
D|---------------------------------------------------------------|

4.39

D|---------------------------------------------------------------------------|
A|---------------------------------------------------------------------------|
F|---------------------------------------------------------------------------|
C|--5--555—5~--5-5--------4-44-4~--88-88-88--8-5-555-5--5-5--------4-44-4-8~-|
G|--5--555—5~--5-5--------4-44-4~--88-88-88--8-5-555-5--5-5--------4-44-4-8~-|
D|--3--333—3~--3-3-6p5\1--2-22-2~--66-66-66--6-3-333-3--3-3-6p5\1--2-22-2-6~-|
       ***                  **                   ***                 **
^ play x2

5.30

D|---------------------------------------------------------------|
A|---------------------------------------------------------------|
F|-------------5~-------------------5---7-7----------------------|
C|--2-2--22----5~--------2-2--22----5---7-7----------------------|
G|--2-2--22----3~--------2-2--22----3---5-5----------------------|
D|--0-0--00--------------0-0--00---------------------------------|
         **                   **


D|---------------------------------------------------------------|
A|---------------------------------------------------------------|
F|-------------5~------------------5---7-------------------------|
C|--2-2--22----5~--------22~-------5---7-------------------------|
G|--2-2--22----3~--------22~-------3---5-------------------------|
D|--0-0--00------~-------00~-------------------------------------|
         **              
^ play x6

then end with this.. at 6.45

D|---------------------|
A|---------------------|
F|---------------------|
C|--2~~~---------------|
G|--2~~~---------------|
D|--0~~----------------|



End!!

NIGHTWISH! YEEAAHHHHH F*CKER YEAHHHH!!!
Suggest correction
What's this?
You can suggest a correction to this tab. Community and Mods will review your correction and vote to approve or reject it.
comments
We did not receive enough feedback on this tab! Please rate:
print report bad tab
1 2 3 4 5
2 comments total.
+1 reply
Mistress_Ibanez 994 wrote on May 27 2008, 05:57 pm

The song is called 7 days TO the wolves, not of the wolves.

I realise you put it correctly in the tab, perhaps it's an error from whoever accepted it?

0 reply
Aceroth 415 wrote on July 4 2008, 07:12 pm

This looks kind of inaccurate. You have the basic idea, but the details are missing.

guest
You may want to rate the tab now too:
select rating
Please do not post tabs as comments. Select "correction" instead!