Oops, an error
Loading. Please wait.

Astral Romance Tab

version 2
version 2

Whole song

Interactive

6,334 views 9 this week
3 commentsread comments
1 2 3 4 5
excellent!
x 5
add to favorites
launch autoscroll
font size
0
reset
how to read this tab
guitar tuner
Tab Pro tools
  • play this tab
  • loop segment
  • change instrument
  • show fretboard
  • metronome
×
Best way to learn
"Astral Romance"
Autoscroll
slow
fast
+/-
esc
set tempo
stop
Band:               Nightwish
Song:               Astral Romance (remake 2001)
Album:              Over The Hills And Far Away
Tabbed by:          Hebert Bravo
E-mail:             wizardhp_7@hotmail.com

Ok this song have some differen parts incluyding the solo.
For corrections, suggest,... please mail me.

Intro

Guitar I                    Guitar II Enter Here |
|--------------------------------------------------------------------------|
|--------------------------------------------------------------------------| 
|-------------------------------------0-00022/4-2-22244/7-5--5-4-2--2-4-5-4| 
|-2-2-4-5-0--0-4-5----5-4-2--2-4-5-----------------------------------------|
|------------------3--3-2-0--0-2-3-2---------------------------------------| 
|----------------------------------0---------------------------------------| 
                            
|--------------------------------------|
|--------------------------------------| 
|-0-022/4-2--2-44/7-5--5-4-2--2-4-5-4--| 
|--------------------------------------|
|--------------------------------------| 
|--------------------------------------| 

Guitar II                   
|-------------------------------------------------|
|-------------------------------------------------| 
|-7---5----------------------7---5----------------| 
|-7---5--5-4-2--2-4-5--------7---5--5-4-2--2-4-5--|
|-5---3--3-2-0--0-2-3-2------5---3--3-2-0--0-2-3--| 
|---------------------0---------------------------| 

 This part (x2)                  1st     2nd 
|-----------------------------||-----||-----||-----------------------------|
|-----------------------------||-----||-----||-----------------------------| 
|-----------------------------||-----||-----||-----------------------------| 
|-----------------------------||-3-3-||--3*-||----------------------4-5-7-5|
|-2-2-3-2-2-3-2-2-3-2-2-3-2-2-||-1-1-||--1*-||2-2-3-2-2-3-2-2-3-2-2-2-3-5-3| 
|-0-0-1-0-0-1-0-0-1-0-0-1-0-0-||-----||-----||0-0-1-0-0-1-0-0-1-0-0--------| 
pm. .   . .   . .   . .   . .                  . .   . .   . .   . . 

 Verse 1
|-----------------------------------------------------------------------|
|-----------------------------------------------------------------------| 
|---------------------------------5--7--5--7--5---5--7--5--7--5-2-------| 
|-5--4--7--5--45--5--4--7--5--45--3335553335553-333335553335553-2-------|
|-33322255533323333332225553332333------------------------------0-------| 
|-----------------------------------------------------------------------| 
p.m.. .. .. ..  .. .. .. .. ..  .. .. .. .. ..  .. .. .. .. ..

|---------------------------------||-------------------------------|
|---------------------------------||-------------------------------| 
|---5--7--5--7--5---5--7--5--7--5-||-------------(repeat-----------| 
|-333335553335553-333335553335553-||---------2-------verse 1)------|
|---------------------------------||-2223222-0---------------------| 
|---------------------------------||-0001000-----------------------| 

 "Ah ah ah Ah ah ah..." 
|------------------------------------------------|
|------------------------------------------------| 
|------------------------------------------------| 
|-----------------8\--3xx-------------8xxx-3-----|
|-2223222-55--3-3-6\--1xx-3xx-5xxx-3--6xxx-1--3--| 
|-0001000-33--1-1---------1xx-3xxx-1----------1--| 
                            p.m...     ...   

|-----------------------------------------|
|-----------------------------------------| 
|-----------------------------------------| 
|---------8----8----8--8----8----8-3------|
|-5----3--666666666666666666666666-1--3---| 
|-3333-1------------------------------1---| 
p.m...     .... .... .. .... ....


Interlude
|-------------------------------------|  
|-------------------------------------|  
|-----5p0-----5p0-----5p0-2h3p2-------|  
|-2-2-----2-2-----2-2----------3p2p0--|x2
|-0-0-----0-0-----0-0-----------------|  
|-------------------------------------|  
pm. .     . .     . .

 A
|------------------------------------------------------|
|------------------------------------------------------| 
|------------------------------------------------------| 
|---------------3-----------------------------4-5-7-5--|
|-2-2232-2-2232-1-2232-222-222-22-3-22-3-22-3-2-3-5-3--| 
|-0-0010-0-0010---0010-000-000-00-1-00-1-00-1----------| 

 B                            1st time        2nd time
|-------------------------||--------------||-------------|
|-------------------------||--------------||-------------| 
|-------------------------||--------------||-------------| 
|-----5p0-----5p0-----5p0-||-2h3p2--------||-2h3p2-------|
|-2-2-----2-2-----2-2-----||------3p2-5*~-||------3p2p0--| 
|-0-0-----0-0-----0-0-----||--------------||-------------| 
pm. .     . .     . .   
 
Repeat (A)
Repeat (B)

|---------------------------------------------------|
|---------------------------------------------------| 
|---------------------------------------------------| 
|---------------3------------------------4-5-7-5----|
|-2-2232-2-2232-1-2-2-2-2-22-3-22-3-22-3-2-3-5-3-2--| 
|-0-0010-0-0010---0-0-0-0-00-1-00-1-00-1---------0--| 


|-----------------------------------------------------------------------|
|-----------------------------------------------------------------------| 
|--------------------7----5---------------------7----5------------------| 
|-5-4-2--2-4-5-------7----5--5-4-2--2-4-5-------7----5--5-4-2--2-4-5----|
|-3-2-0--0-2-3-2-----5----3--3-2-0--0-2-3-2-----5----3--3-2-0--0-2-3-2--| 
|--------------0--------------------------0--------------------------0--| 

Guitar II under solo
|--------------------------------------------------------------------|
|--------------------------------------------------------------------| 
|-7----5----5-7---------7----5--------9--9------7--7------5--5-------| 
|-7----5----5-7----2----7----5---2xxx-9--9------7--7------5--5-------|
|-5----3----3-5----2----5----3---0xxx-777777...-555555...-333333...--| 
|------------------0-------------------------------------------------|

|---------------------------------------------------------| 
|---------------------------------------------------------| 
|-7--7------9--9------7--7------5--5----------------------| 
|-7--7------9--9------7--7------5--5------5-4-2--2-4-5----| 
|-555555...-777777...-555555...-333333...-3-2-0--0-2-3-2--| 
|------------------------------------------------------0--| 
End of Solo


Solo Guitar I
|----------15----------15/17~----------------------------------------------|
|----17----------17----------17--------------------------------------------| 
|-16----16----16----16-----------9-999/-9-999777/-4\-----------------/12-9~| 
|---------------------------------------------------/////12-12-10-9--------|
|------------------------------------------------------------------7~------| 
|--------------------------------------------------------------------------| 


|--------------------------------------------------------------|
|------------15----14----13----12-10-9-8-----------------------| 
|-/////12-12----12----12----12-----------9-8-7-----------------| 
|----------------------------------------------10-9-7-9~~~~/\--|
|--------------------------------------------------------------| 
|--------------------------------------------------------------|


|------------------------------------------------12-14-14b-14-12-------|
|----------------------------------------------------------------15/\--| 
|-------------------------------9-11-11b-11-9--------------------------| 
|-2-224-445-557-779-9910-101012---------------12-----------------------|
|----------------------------------------------------------------------| 
|----------------------------------------------------------------------|

                                 little bend       this is to fast
|----------15----------15/17~-------------------------------------------|
|----17----------17----------17----12b----------------------------------| 
|-16----16----16----16-------------12b-p9~---12p9h11p9h12p9h11p9h12...--| 
|-----------------------------------------------------------------------|
|-----------------------------------------------------------------------| 
|-----------------------------------------------------------------------|


|------------------10-12-10---------------------------------------|
|---------10-12-13----------13-12-10-----------/15-12--/10-8--/5--| 
|-9-11-12-----------------------------12p9~-----------------------| 
|-----------------------------------------------------------------|
|-----------------------------------------------------------------| 
|-----------------------------------------------------------------|

this part is hard to hear for me and to fast but i supused to be 
|-----------------------------7-8-10-8-7-10-8-7-------------------------|
|-----------------------7-8-10-----------------10-8-7-------------------| 
|---------------7-7-9-10-----------------------------10-9-7-------------| 
|---------7-9-10-------------------------------------------10-9-7-------|
|-7-7-9-10-------------------------------------------------------10-9-7-| 
|-----------------------------------------------------------------------|

The escale continues
|-----------------------------------|
|-----------------------------------| 
|-----------7-9-10-9-7--------------| 
|-----7-9-10----------10-9-7--------|
|-9-10----------------------10-9-7--| 
|-----------------------------------|

|-----------------------------------------------------------------| 
|-------------------------------------/10-------------------------| 
|-------------12----11~/\----9---12---------12---9---7------------|
|-12-10-10/12----12-------/9---9----9-----9----9---9---9-5--------| 
|----------------------------------------------------------7-5-7~-|
|-----------------------------------------------------------------|
End of Solo

|-------------------------------------|
|-------------------------------------| 
|-------------------------------------| 
|-2--2-4-5-0--0-4-5---5-4-2--2-4-5----|
|-------------------3-3-2-0--0-2-3-2--| 
|----------------------------------0--|

END
comments
print report bad tab
3 comments total.
0 reply
littleleo88 wrote on August 14 2006, 07:21 am

awesome tab sir. fairly accurate. solo is a little off at times, but sounds great.

+1 reply
säheltäjä wrote on April 21 2008, 02:06 pm

Pretty good! But this arpeggio thing on the verse 2 is a bit odd.
Doesn't it go mainly like this:
E:-------------------------------------------------------------------|
B:----------------------------------|--------------------------------|
G:---------------------------------*|--------------------------------|
D:-----5-------5-------3------------|--------------------------------|
A:---5---5---6---6---3---3-5653----*|2-2-2-2-------------------------|
E:-3-------3-------3------------6-5-|0-0-0-0-...---------------------|

and on the repeat like this:

E:----------------------------------|--------------------------------|
B:----------------------------------|--------------------------------|
G:---------------------------------*|--------------------------------|
D:-----6-------6-------4------------|--------------------------------|
A:---6---6---7---7---4---4-6764----*|-2-2-2-2-2-2--------------------|
E:-4-------4-------4------------7-6-|-0-0-0-0-0-0-...----------------|

and that sort of thing? Correct me if I am wrong.

0 reply
Sakuboi wrote on September 6 2009, 11:38 am

I think intro starts like this:

|---------------
|---------------
|-------------2-
|-2----2-4-5--0-
|-2-------------
|--------------- etc...

I want to post or [tab]
guest
You may want to rate the tab now too:
select rating
Please do not post tabs as comments. Select "correction" instead!