Oops, an error
Loading. Please wait.

Beauty And The Beast Tab

version 1
version 1

Whole song

Interactive

27,516 views 30 this week
no commentswrite comment
1 2 3 4 5
excellent!
x 11
add to favorites
launch autoscroll
font size
0
reset
how to read this tab
guitar tuner
Autoscroll
slow
fast
+/-
esc
set tempo
stop
Help us to improve Ultimate-Guitar.com Take our survey!
×
BAND- NIGHTWISH
ALBUM- ANGELS FALL FIRST
SONG- BEAUTY AND THE BEAST       (PLEASE RATE)
TABBED BY EMPPU_JR.          

0:07
E|--------------------------------------------------------||
B|--------------------------------------------------------||
G|-5-7-----5-7----5-7----5-7--------8-5-------8-7---------||
D|-5-7-2---5-7-2--5-7-2--5-7-5------8-5-5-----8-7-5-------||
A|-3-5-2---3-5-2--3-5-2--3-5-5------6-3-5-----6-3-5-------||
E|-----0-------0------0------33.....----33....----3-------||

E|--------------------------------------------------------||
B|--------------------------------------------------------||  
G|-------------------------------------------------5-7----||  
D|-------------------------------------------------5-7-5--||  
A|-------------------------------------------------3-5-5--||
E|-7-5-3-0-2-3-5---7-5---8-7-5-3-2-0-7-5-3-0-2-3-5-----3--||

E|--------------------------------------------------------||
B|--------------------------------------------------------||
G|--------------------------------------------------------||
D|--------------------------------------------------------||
A|--------------------------------------------------------||
E|-7-5-3-0-2-3-5---7-5---8-7-5-3-2-0-7-5-3-0-2-3-5--------||

E|---------------------------------------------------------------------||
B|---------------------------------------------------------------------||
G|-------------Start getting faster and faster, then slow down---------||
D|-5-7-8-10-8-10-8-10-8-10-8-10-8-10-8-10-8-10-8-10-8-10-8-10-8-10-----||
A|-3-5-6--8-6--8-6--8-6--8-6--8-6--8-6--8-6--8-6--8-6--8-6--8-6--8-8---||
E|-----------------------------------------------------------------6---||

1:15
E|--------------------------------------------------------||
B|--------------------------------------------------------||
G|---------7/5------------7-5-----------------------------||
D|-7-3-5-5-7/5------7-3-5-7-5-----------------------------||
A|-7-3-5-5-5/3------7-3-5-5-3-----------------------------||
E|-5-1-3-3----------5-1-3---------------------------------||

1:30
E|--------------------------------------------------------||
B|--------------------------------------------------------||
G|-------------------------------------7------------------||
D|-7-7-7---------3-3-3-------5-5-5-5-5-7------------------||
A|-7-7-7-5-3-2-0-3-3-3-5-3-0-5-5-5-5-5-5-5-7-7-7-5-7-7-7--||
E|-5-5-5---------1-1-1-------3-3-3-3-3--------------------||

E|--------------------------------------------------------||
B|--------------------------------------------------------||
G|-------------------------------------7------5-----------||
D|-7-7-7---------3-3-3-------5-5-5-5-5-7-Ring-5Ring-------||
A|-7-7-7-5-3-2-0-3-3-3-5-3-0-5-5-5-5-5-5------3-----------||
E|-5-5-5---------1-1-1-------3-3-3-3-3--------------------||

1:48
E|--------------------------------------------------------||
B|--------------------------------------------------------||
G|----7-----5---------------------------------------------||
D|-7--7--3--5--5-5-5-5------------2 TIMES-----------------||
A|-7--5--3--3--5-5-5-5------------------------------------||
E|-5-----1-----3-3-3-3------------------------------------||

2:05
E|--------------------------------------------------------||
B|--------------------------------------------------------||
G|-------------------------------------7------------------||
D|-7-7-7---------3-3-3-------5-5-5-5-5-7------------------||
A|-7-7-7-5-3-2-0-3-3-3-5-3-0-5-5-5-5-5-5-5-7-7-7-5-7-7-7--||
E|-5-5-5---------1-1-1-------3-3-3-3-3--------------------||

E|--------------------------------------------------------||
B|--------------------------------------------------------||
G|-------------------------------------7------5-----------||
D|-7-7-7---------3-3-3-------5-5-5-5-5-7-Ring-5Ring-------||
A|-7-7-7-5-3-2-0-3-3-3-5-3-0-5-5-5-5-5-5------3-----------||
E|-5-5-5---------1-1-1-------3-3-3-3-3--------------------||

2:21
E|--------------------------------------------------------||
B|--------------------------------------------------------||
G|----7-----5---------------------------------------------||
D|-7--7--3--5--5-5-5-5----------------------2 TIMES-------||
A|-7--5--3--3--5-5-5-5------------------------------------||
E|-5-----1-----3-3-3-3------------------------------------||

About midway through the guys little growl thing, the guitar comes in.

2:46
E|--------------------------------------------------------||
B|--------------------------------------------------------||
G|--------------------------------------------------------||
D|-8-10-8-10-8-10-8-10------------------------------------||
A|-6--8-6--8-6--8-6-8--8----------------------------------||
E|---------------------6----------------------------------||


3:11
E|-----------------------------11------------------14-13-------||
B|--------------------11--13------14--14\13-14/16--------16-14-||
G|--13^--13~--12\10-10--10---10--------------------------------||
D|-------------------------------------------------------------||
A|-------------------------------------------------------------||
E|-------------------------------------------------------------||

E|------------------------------11-----------------14-13---------||
B|--------------------11---13------14--14\13-14/16--------16-14--||
G|-11~-11h13-11-10--10---10---10---------------------------------||
D|---------------------------------------------------------------||
A|---------------------------------------------------------------||
E|---------------------------------------------------------------||




E|--------------------------------------------------------||
B|--------------------------------------------------------||
G|---13= ---15\13= ---------------------------------------||
D|--------------------------------------------------------||
A|--------------------------------------------------------||
E|--------------------------------------------------------||


3:32
E|--------------------------------------------------------||
B|--------------------------------------------------------||
G|-----3-------5-3-5---------3-------5-3-5----------------||
D|-5-3-3-5-5-3-5-3-5-5---5-3-3-5-5-3-5-3-5-5-4-2----------||
A|-5-3-1-5-5-3-3-1/3-5---5-3-1-5-5-3-3-1/3-5-4-2----------||
E|-3-1---3-3-1-------3---3-1---3-3-1-------3-2-0----------||

(29 ¼)
4:29
E|--------------------------------------------------------||
B|--------------------------------------------------------||
G|--------5-2--------5-2-------5-2--------5-2-------------||
D|-2------5-2-2------5-2-2-----5-2-2------5-2-------------||
A|-2------3-0-2------3-0-2-----3-0-2------3-0-------------||
E|-00.....----00....-----00....----0...-------------------||

4:50
E|--------------------------------------------------------||
B|--------------------------------------------------------||
G|--------------------------------------------------------||
D|---3------3-2---3-------------2-------------------------||
A|------------------------------2-------------------------||
E|-1---1--1-----1---1—---12/----0-------------------------||

E|--------------------------------------------------------||
B|--------------------------------------------------------||
G|-----------------------------------9~~~~~---------------||
D|---3------3-2---3--------------2------------------------||
A|-------------------------------2------------------------||
E|-1---1--1-----1---1-----12/----0------------------------||

5:11
E|----------------------------------------------------||
B|----------------------------------------------------||
G|--------5-2----------------------5-2-------5-2------||
D|-2------5-2-2--------------2-----5-2-2-----5-2------||
A|-2------3-0-2--------------2-----3-0—2-----3-0------||
E|-00.....----00....-1/12\1— 0....-----0....----33....||

5:31
E|--------------------------------------------------------------||
B|--------------------------------------------------------------||
G|3-5----------3-5----------3-5----------3-5----5-3----3-5------||
D|3-55---3-5---3-55---3-5---3-55---3-5---3-55---5-3-5--3-55-----||
A|1/35---3-5---1/35---3-5---1/35---3-5---1/35---3-1-5—-1/35-----||
E|---33..1-33..---33..1-33..---33..1-33..---33..----33..--33..--||
Suggest correction
What's this?
You can suggest a correction to this tab. Community and Mods will review your correction and vote to approve or reject it.
comments
print report bad tab
guest
You may want to rate the tab now too:
select rating
Please do not post tabs as comments. Select "correction" instead!