Oops, an error
Loading. Please wait.

Bless The Child Bass Tab

version 1
version 1

Whole song

2,127 views 1 this week
no commentswrite comment
1 2 3 4 5
please rate
add to favorites
launch autoscroll
font size
0
reset
guitar tuner
Tab Pro tools
  • play this tab
  • loop segment
  • change instrument
  • show fretboard
  • metronome
×
Best way to learn
"Bless The Child"
Autoscroll
slow
fast
+/-
esc
set tempo
stop
Contributor
Difficulty
Tuning
intermediate
B E A D F# B
Title: Bless The Child
Artist: Nightwish
Album: Century Child
Composer: Tuomas Holopainen
Tabbed By: FLBatista
Tunning: Standart B Tunning (BEADG)


INTRO:

G|-----------------------------------------------------|
D|-----------------------------------------------------|
A|-----------------------------------------------------|
E|-0-0-0~---0-0~---------------------------------------|
B|-----------------3-3-3~---333-3-3----3-3-3~---3-3~---|


INTRO 2:

G|-----------------|x2
D|-----------------|
A|-----------------|
E|-000-0-000-0-000-|
B|-----------------|

G|-------------------|x2
D|-------------------|
A|-------------------|
E|-000---0----0-000--|
B|-------------------|

G|-----------------|x2
D|-----------------|
A|-----------------|
E|-000-0-000-0-000-|
B|-----------------|

G|---------------------------------------|
D|---------------------------------------|
A|---------------------------------------|
E|-000---0----0-000--000---0---0---00-00-|
B|---------------------------------------|

G|-----------------|x8
D|-----------------|
A|-----------------|
E|-----------------|
B|-333-3-333-3-333-|


VERSE:

G|-----------------------|
D|-----------------------|
A|-----------------------|
E|---------------1-------|
B|-3--3-3--3-1-3-----1---|

G|------------------|x2
D|------------------|
A|------------------|
E|-0h1--------------|
B|----3-3-333-3-333-|

G|-------------------------------------------------|
D|-------------------------------------------------|
A|-------------------------------------------------|
E|-1--1-1--1---1-3--3-3--3---3-5--5-5--5(x7)-1-----|
B|-----------3-------------3--------------------1--|


CHORUS:

G|---------------------------------------------------------|
D|---------------------------------------------------------|
A|-----------------------------------------1-3-3-3-3-------|
E|-----------1-3-5--5-5--0-5-0-1--1-1--1-3-----------3--3--|
B|-3--3-3--3-----------------------------------------------|

G|-----------------------------------------------------------|
D|-----------------------------------------------------------|
A|-----------------------------------------------------------|
E|---------------3--3-3--3---1-3-5--5-5--5-5-5-5-5(x6)-1--0--|
B|-3--3-3--3-3-3-----------3---------------------------------|


MAIN RIFF:

G|-----------------|x8
D|-----------------|
A|-----------------|
E|-----------------|
B|-333-3-333-3-333-|


PLAY:
VERSE


CHORUS 2:

G|-----------------------------------------------------------|
D|-----------------------------------------------------------|
A|-----------------------------------------1-3-3-3-3---------|
E|-----------1-3-5--5-5--0-5-0-1--1-1--1-3-----------3--1-0--|
B|-3--3-3--3-------------------------------------------------|

G|-----------------------------------------------------------|
D|-----------------------------------------5-7---5-----------|
A|---------------------------------------7-----7---7-5-3-----|
E|-------------1-3--3-3--3-1-3-5--5-5--5-----------------5-3-|
B|-3--3-3--3-3-----------------------------------------------|

G|---------------------------------------------------------|
D|---------------------------------------------------------|
A|-----------------------------------------1-3--3-3--------|
E|---------------5--5-5--7-5-3-1--1-1--1-3----------3--1-0-|
B|-3--3-3--3-3-3-------------------------------------------|

G|------------------------------|
D|------------------------------|
A|------------------------------|
E|-1--1-1--1---1-3--3-3--3-3--5-|
B|-----------3------------------|


BRIDGE:

G|-------------|x3
D|-------------|
A|-------------|
E|-------------|
B|-333--3-3-3--|

G|----------------|
D|----------------|
A|----------------|
E|----------------|
B|-3333--3333--1--|


VERSE 3:

G|---------------------------------------------|
D|---------------------------------------------|
A|------------1--1-----1-3--3------------------|
E|--------0-1------1-3--------3-1-0------------|
B|-3--3-3---------------------------3--3-3-3-1-|

G|---------------------------------------------|
D|---------------------------------------------|
A|------------1--1-1---1-3--3-3-1--------------|
E|--------0-1--------3------------3-1--1-1---1-|
B|-3--3-3----------------------------------3---|

G|------------------------------------------------|
D|------------------------------------------------|
A|------------1--1-1-----3--3-----3-5-5-5-5-3-----|
E|-3--3-0-1-3--------1-3------3-5-------------5-3-|
B|------------------------------------------------|

G|----------------------------------------|
D|----------------------------------------|
A|------------1--1-1---1-3--3-3---3-1--0--|
E|-3--3-0-1-3--------3----------3---------|
B|----------------------------------------|


INTERLUDE:

G|--------------|x11
D|--------------|
A|--------------|
E|-333-3-3-3-33-|
B|--------------|

G|-------------|
D|-------------|
A|-------------|
E|-333-3-3-1-0-|
B|-------------|

G|-------------------------------------------------|x2
D|-------------------------------------------------|
A|-------------------------------------------------|
E|---------------------1-0---------------333-3-1-0-|
B|-333-3-3-3-33333-3-3-----333-3-3-3-333-----------|

G|---------------------------------|
D|---------------------------------|
A|---------------------------------|
E|-5-555-555-555-555-555-551-0-----|
B|-----------------------------3-\-|


CHORUS 3:

G|----------7\----------------5------------5-----7--\-|
D|------7--------------7--3-------3-5----5-----5---5\-|
A|-/5--------------7------------------3------3/-------|
E|-------------5--------------------------------------|
B|----------------------------------------------------|

G|---------7\-------------------------|
D|-----7---------------5--------------|
A|-5---------------5------------------|
E|-------------3----------5(x12)-1-0--|
B|------------------------------------|


CHORUS 4:

G|----------------------------------------------------------------|
D|----------------------------------------------------------------|
A|------------------------------------------------1-3-3(x6)-------|
E|-----------------5-5(x5)-5(x5)-551-1(x5)-1(x4)3-----------3--3--|
B|-3-3(x5)-3(x5)-33-----------------------------------------------|

G|--------------------------------------------------------------|
D|------------------------------------------------5-------------|
A|--------------------------------0020305070503020-0807050------|
E|1-1(x5)-1(x5)-113-3(x5)-3(x5)-33------------------------1--0--|
B|--------------------------------------------------------------|


MAIN RIFF 2 (x2):

G|------------------|x3
D|------------------|
A|------------------|
E|-0h1--------------|
B|----3-3-333-3-333-|

G|------------------|
D|------------------|
A|------------------|
E|-0h1--------/4--4-|
B|----3-3-333-------|


MAIN RIFF 3:

G|------------------|x2
D|------------------|
A|------------------|
E|-2h30-0-000-0-000-|
B|------------------|

G|------------------|x2
D|------------------|
A|------------------|
E|-2h30---0---0-000-|
B|------------------|

G|------------------|x2
D|------------------|
A|------------------|
E|-2h30-0-000-0-000-|
B|------------------|

G|------------------|
D|------------------|
A|------------------|
E|-2h30---0---0-000-|
B|------------------|

G|------------------|
D|------------------|
A|------------------|
E|-2h30---0---00-00-|
B|------------------|

G|---------------------|x8
D|---------------------|
A|---------------------|
E|-0h1----0h1----0h1---|
B|----3333---3333---33-|

G|---------------------|x8
D|---------------------|
A|---------------------|
E|-2h300002h300002h300-|
B|---------------------|


CAPTIONS:

 / : Slide Up
 \ : Slide Down
 h : Hammer On
 p : Pull Off
 ~ : Let Ring
comments
We did not receive enough feedback on this tab! Please rate:
print report bad tab
1 2 3 4 5
I want to post or [tab]
guest
You may want to rate the tab now too:
select rating
Please do not post tabs as comments. Select "correction" instead!