Oops, an error
Loading. Please wait.

Dark Chest Of Wonders Bass Tab

version 1
version 1

Whole song

Interactive

3,808 views 6 this week
no commentswrite comment
1 2 3 4 5
x 3
add to favorites
launch autoscroll
font size
0
reset
guitar tuner
Autoscroll
slow
fast
+/-
esc
set tempo
stop
Help us to improve Ultimate-Guitar.com Take our survey!
×
Author
#----------------------------------PLEASE NOTE---------------------------------#
#This file is the author's own work and represents their interpretation of the #
#song. You may only use this file for private study, scholarship, or research. #
#------------------------------------------------------------------------------#

Band: Nightwish
Album: Once
Song: Dark Chest Of Wonders
Tuning 4-string: E A D G
Tabbed By: MetalBass

!!The song is finished!!

First only guitar then

Intro Part I
G ---------|
D ---------|
A ---------|
E -2/12\0--|

II
G -----------------|
D -----------------|
A -----------------|
E -0h1p0-0-0h1p0-0-|

III
G -----------------------------------------------| In this part there is a
D -----------------------------------------------| riff witch I can't figure
A -----------------------------------------------| out, sorry for that
E 3001003001001000-300100300101310-300100300101--|

IIII
G ---------------------------------------------------------------|
D ---------------------------------------------------------------|
A ----------------------------------------------------------1-1--|
E -3010301000-30103010031030103-0h1-0h1-4-3-1-0-0h1p0-0h1p0------|

V
G ------------------------------------------------------|
D ------------------------------------------------------|
A ----------------------------------------------2--0-3--|
E -3010301000-30103010031030103-0h1-0h1-4-3-1-0---------|

IV
G --------------------------------------------------------------------|
D --------------------------------------------------------------------|
A --------------------------------------------------------------------|
E -3333331-3333-1-3-1-3333333331111-1-3-1-5555553-5555-3-5-3-55553--0-|

Verse
G -----------------------------------------------------------------|
D -----------------------------------------------------------------|
A -------------------------------------000000000000----------------| 2x
E -000-000-000-0/3\1-000-000-000-0/3\1--------------1111111333333--|

Intro part IV 1x
Verse         2x

Chorus
G -----------------------------------|
D -----------------------------------|
A -----3-5--------------3----0-------|
E -5--1----0135--5---5---1--0---013--|

After Chorus
G ------------------------------------------------------|
D ------------------------------------------------------|
A ------------------------------------------------------|
E 3010301000000-3010301010000-3010301000-3010000001000--|

Pre-Bridge
G ----------------------|
D ----------------2222--|
A ------0000-2222-------|
E -0000-----------------|

Bridge I
G ----------------------------------------------------------|
D ----------------------------------------------------35----|
A -----------------------------------------0000h1111-----5--|
E -0000-0000-0000-0000-0-0000-1--0000-0000------------------|

II
G --------------------------------|
D --------------------------------|
A ----3--2--0--2------3------0----|
E -0-------------000~---000~---1--|

III
G ------------|
D ------------|
A ------------|
E -0000-0000--|

Bridge I  1x

Bridge IIII
G -----------------------------------------------|
D ----------------------------------------54-----|
A --------------------------------222h333-----5--|
E -0-000-000-000-0000001-0-000-0-----------------|

Chorus 1x

Outro
G ------------------------------------------------|
D ------------------------------------------------|
A -22222222000------------------------5555555555--|
E -------------0020202020200303020303-------------|

G --------------------------------------------------------------|
D --------------------------------------------------------------|
A -22222222000-------------000000000000-----------------22--22--|
E -------------00303000000--------------002020303030005---------|
Suggest correction
Give kudos to tab author, rate the tab!
1 2 3 4 5
comments
print report bad tab
guest
You may want to rate the tab now too:
select rating
Wanna post a correction for this tab? Suggest correction