Oops, an error
Loading. Please wait.

Dark Chest Of Wonders Tab

version 1
version 1

Whole song

Interactive

23,832 views 42 this week
6 commentsread comments
1 2 3 4 5
accurate
x 7
add to favorites
launch autoscroll
font size
0
reset
how to read this tab
guitar tuner
Tab Pro tools
  • play this tab
  • loop segment
  • change instrument
  • show fretboard
  • metronome
×
Best way to learn
"Dark Chest Of Wonders"
Autoscroll
slow
fast
+/-
esc
set tempo
stop
Band:           Nightwish
Aibum:          Once
Song:           Dark Chest of Wonders
Transcribed by: Hebert Bravo
E-mail:         wizardhp_7@hotmail.com

Ok, thanks again to ultimate-guitar. Remember the marks (+) is for a
better understanding. For corrections or suggest please mail me.
Well this is my best work, I expect to please you. ¡THANKS NIGHTWISH! 

Intro (00:03)
|--------------------------------------------------------------|
|--------------------------------------------------------------|
|--------------------------------------------------------------|
|-5-3-5-3-22-5-3-5-3-----5-3-5---------------------------------|
|-5-3-5-3-22-5-3-5-3-----5-3-5-2h3-2h3-6-5-3-2-2h3p2-2-2h3p2-2-|
|-3010301000-30103010031030103-0h1-0h1-4-3-1-0-0h1p0-0-0h1p0-0-|
   + + + +    + + + +++++ + +                             _________
 Riff 1 (00:14)                   I don't sure about this|         |
|-------------------------------------------------------------------|
|-------------------------------------------------------------------|
|---------------------------------------------------1-1b--/13~-/13~-|
|---------------------------------------------------------/13~-/13~-|
|---------------------------------------------4-2--2-2--------------|
|3001003001001000-300100300101310-300100300101-4-30-----------------|           

 Riff 2(00:24)
|------------------------------------------------------------------|
|------------------------------------------------------------------|
|--------------------------------------------------------------3-3-|
|-5-3-5-3-22-5-3-5-3-----5-3-5---------------------------------3-3-|
|-5-3-5-3-22-5-3-5-3-----5-3-5-2h3-2h3-6-5-3-2-2h3p2-2-2h3p2-2-1-1-|
|-3010301000-30103010031030103-0h1-0h1-4-3-1-0-0h1p0-0-0h1p0-0-----|
   + + + +    + + + +++++ + +
  
|-----------------------------------------------------|
|-----------------------------------------------------|
|----------------------------------------------4--2-5-|
|-5-3-5-3-22-5-3-5-3-----5-3-5-----------------4--2-5-|
|-5-3-5-3-22-5-3-5-3-----5-3-5-2h3-2h3-6-5-3-2-2--0-3-|
|-3010301000-30103010031030103-0h1-0h1-4-3-1-0--------|
   + + + +    + + + +++++ + +
 Riff 3 (00:44)
|-----------------------------------------------------------------|
|-----------------------------------------------------------------|
|-----------------------------------------------------------------|
|-5-----3-5---3-5-3-5--------3---3-5-3-7-----5-7---5-7-5-7---5--2-|
|-5-----3-5---3-5-3-5--------3---3-5-3-7-----5-7---5-7-5-7---5--2-|
|-3333331-33331-3-1-33333333311111-3-1-5555553-55553-5-3-55553--0-|
   +++++   +++       ++++++++ +++       +++++   +++       +++
 Chours (01:02)
|---------------------------------------------------------------|
|---------------------------------------------------------------|
|---------------------------------------2-2-2-2-2-2-------------|
|---2--2--2-----------2--2--2-----------2-2-2-2-2-2--3-3-5-5-55-|x2
|---2--2--2-2h3/5\2---2--2--2-2h3/5\2-0000000-0-0-0--3-3-5-5-55-|
|-000000000-0h1/3\0-000000000-0h1/3\0--------------111111333333-|
  ++ ++ ++          ++ ++ ++          ++ + +       ++ + + + + 
Guitar II Riff 3 (01:22)

Guitar I (01:22)
|------------------------------------------------------------------------|
|------------------------------------------------------------------------|
|----------7-8-5-7--------------5-7-5-7\------7-8-5-7-----5-5---------7*-|
|-5--5-7-8---------8-7-5--5-7-8---------5-7-8---------8-5-----8-7-5-7----|
|------------------------------------------------------------------------|
|------------------------------------------------------------------------|

|---------------------------------------------------------------------------|
|---------------------------------------------------------------------------|
|-----------9-10-7-9----------------7-9-7-9--------9-10-7-9------7-7--------|
|-7--7-9-10----------10-9-7--7-9-10---------7-9-10----------10-7-----10-9-7-|
|---------------------------------------------------------------------------|
|---------------------------------------------------------------------------|

 Repeat Chours x2  (01:37)                          2nd time
|------------------------------------------------||--------------|
|------------------------------------------------||--------------|
|------------------------------------------------||--------------|
|------------------------------------------------||---3-3-5------|
|------------------------------------------------||---3-3-5------|
|------------------------------------------------||-111111333333-|

Verse 1 (01:58)  "Fly to a dream...")
|-----------------------------------------------------------|
|-----------------------------------------------------------|
|-------5---7----------------5------2-----------------------|
|-7---3-5---7--2-3-5-7---7---5-3--2-2---2-3-5---------------|
|-7---3-3---5--2-3-5-7---7---3-3--2-0---2-3-5---------------|
|-5---1--------0-1-3-5---5-----1--0-----0-1-3---------------|

 Interlude 1 (02:20)
|-----------------------------------------------------------|
|-----------------------------------------------------------|
|-----------------------------------------------------------|
|-5-3-5-3-------5-3-5-3-3-----5-3-5-3-22-5-3------3-22------|
|-5-3-5-3-22222-5-3-5-3-32222-5-3-5-3-22-5-3-222223-22------|
|-3010301000000-3010301010000-3010301000-3010000001000------|
 
|-----------------------------------------------------------|
|-----------------------------------------------------------|
|-------------------4444------------------------------------|
|-------2222--4444--2222------------------------------------|
|-2222--0000--2222------------------------------------------|
|-0000------------------------------------------------------|

 Interlude 2 (02:36)          1st time, 2nd time   
|----------------------------||-------||-------||------------------------|
|----------------------------||-------||-------||------------------------|
|----------------------------||-------||-------||------------------------|
|----------------------------||---3---||-------||------------------35----| x2
|-2222-2222-2222-2222-2-2222-||---3---||---3*--||-2222-2222-000h111—-5*~-|
|-0000 0000 0000 0000 0 0000-||---1---||-------||-0000-0000--------------|

 Verso 2 (02:55)
|-----------------------------------------------------------|
|-----------------------------------------------------------|
|-----5---4---2--4----------5----------2--------------------|
|-2---5---4---2--4------2---5------2---2--3-----------------|
|-2---3---2---0--2------2---3------2---0--3-----------------|
|-0-----------------0-0-0------0-0-0------1-----------------|

 Repeat Interlude 2 (x1)(03:15)
 (03:25) (Ah, ah, ah ,ah...)
|----------------------------------------------------------|
|----------------------------------------------------------|
|----------------------------------------------------------|
|--------------------------------------54------------------|
|-2---2---2---2---2---3-2---2—--222h333—-5-----------------|
|-0-000-000-000-0000001-0-000-00---------------------------|
    ++  ++  ++  ++ +++    ++  ++   
 Repeat Verse 1 (03:36)
 Outro (03:59)
|-------------------------------------------------------|
|-------------------------------------------------------|
|---4-4-44--2----------------------7-----7xx------------|
|---4-4-44--2--4-4-4-4-4--5-5-4-5-77-----7xx------------|
|-22222222000--4-4-4-4-4--5-5-4-5-7555...5xx...---------|
|------------0020202020200303020305---------------------|
  ++ + +  ++ ++ + + + + ++ + + + +  +++++  
|-----------------------------------------------------------|
|-----------------------------------------------------------|
|---4-4-44--2-------------2-2-2-2-2------------------44--44-|
|---4-4-44--2--5-5-2-2-2--2-2-2-2-2--4-4-5-5-5--7----44--44-|
|-22222222000--5-5-2-2-200000000000--4-4-5-5-5--7----22--22-|
|------------00303000000-----------00202030303005-----------|
  ++ + +  ++ ++ + + + + ++ + + + + ++ + + + + ++
End                 
This is all ¡ENJOY!
comments
print report bad tab
6 comments total. Showing first comments. show 1 bad comment
+2 reply
corey#8_666 wrote on December 30 2005, 11:47 am

ShuT UP! You suck too! but what......? ;P

+3 reply
Erlend Johan wrote on May 25 2006, 06:22 am

nightwish do not suck!you suck!you cant even write a tab!

I want to post or [tab]
guest
You may want to rate the tab now too:
select rating
Please do not post tabs as comments. Select "correction" instead!