Oops, an error
Loading. Please wait.

Dark Chest Of Wonders Bass Tab

version 2
version 2

Whole song

Interactive

3,267 views 1 this week
1 commentread comment
1 2 3 4 5
please rate
add to favorites
launch autoscroll
font size
0
reset
guitar tuner
Autoscroll
slow
fast
+/-
esc
set tempo
stop
Help us to improve Ultimate-Guitar.com Take our survey!
×
Author
Tuning
D A D G B E
#----------------------------------PLEASE NOTE---------------------------------#
#This file is the author's own work and represents their interpretation of the #
#song. You may only use this file for private study, scholarship, or research. #
#------------------------------------------------------------------------------#

DARK CHEST OF WONDERS (Bassline)
As recorded by Nightwish
(From the 2004 Album ONCE)

Transcribed by vengance302
	

Words and Music by Tuomas Holopainen
Arranged by Tuomas Holopainen

Gtr I (D A D G) - 'Marco'

 Intro
  Q=100
  N.C.
 4/4
  Gtr I
  W           W          W           W            +E  S S E S S S S Q.
|----------||----------|----------|------------|--------------------------|
|----------||----------|----------|------------|--------------------------|
|----------||----------|----------|------------|--------------------------|
|----------||----------|----------|-14\--------|-(14)-0-2---3-2-0-2-------|


  S S S S S S S S S S S S S S S S   S S S S S S S S S S S S S S S S
|---------------------------------|---------------------------------|
|---------------------------------|---------------------------------|
|---------------------------------|---------------------------------|
|-5-2-2-3-2-2-5-2-2-3-2-2-2-2-2-2-|-5-2-2-3-2-2-5-2-2-3-2-2-2-3-2-0-|


  S S S S S S S S S S S  S S S S  S    S S  S S  Q   Q  Q
|-----------------------------------|----9-12-9-12\---------|
|-----------------------------------|-13--------------------|
|-7-7-7-7-7-7-7-7-7---8----9-7-9-10-|-----------------------|
|-------------------9---10----------|-----------------------|


  S S S S S S S S S S S S S S S S   S S S S S S S S S S S S S S S S
|---------------------------------|---------------------------------|
|---------------------------------|---------------------------------|
|---------------------------------|---------------------------------|
|-5-2-2-3-2-2-5-2-2-3-2-2-2-2-2-2-|-5-2-2-3-2-2-5-2-2-3-2-2-2-3-2-0-|


  S S S S S S S S S S S S S S S S   S S S S E S S S S E E E
|---------------------------------|-------------------------|
|---------------------------------|-------------------------|
|---------------------------------|-------------------------|
|-5-2-2-3-2-2-5-2-2-3-3-6-6-5-5-3-|-3-2-0-2-2-3-2-0-2-2-2-2-|


  S S S S S S S S S S S S S S S S   S S S S S S S S S S S S S S S S
|---------------------------------|---------------------------------|
|---------------------------------|---------------------------------|
|---------------------------------|---------------------------------|
|-5-2-2-3-2-2-5-2-2-3-2-2-2-2-2-2-|-5-2-2-3-2-2-5-2-2-3-2-2-2-3-2-0-|


  S S S S S S S S S S S S S S S S   E S S S S S S S S S S S S S S
|---------------------------------|-------------------------------|
|---------------------------------|-------------------------------|
|---------------------------------|-2-2-3-2-2-0-2-0-0---0---------|
|-5-2-2-3-2-2-5-2-2-3-3-6-6-5-5-3-|-------------------5---5-5-4-5-|


  $
 3/4
  E S S S S S S S S S S   E S S S S E E E
|-----------------------|-----------------|
|-----------------------|-----------------|
|-----------------------|-----------------|
|-5-5-5-5-5-5-5-5-5-7-3-|-5-5-5-5-5-3-3-3-|


  E S S S S S S S S S S   E S S S S E E E
|-----------------------|-------------------|
|-----------------------|-------------------|
|-----------------------|-------------------|
|-5-5-5-5-5-5-5-5-5-5-5-|-3-3-3-3-3-7-5-3---|


  E S S S S S S S S S S   E S S S S E E E
|-----------------------|-----------------|
|-----------------------|-----------------|
|-----------------------|-----------------|
|-7-7-7-7-7-7-7-7-7-7-5-|-7-7-7-7-7-5-5-5-|


                             To Coda
  E S S S S S S S S S S   E S S S S Q.
|-----------------------|----------------|
|-----------------------|----------------|
|-----------------------|---5-3-0--------|
|-7-7-7-7-7-7-7-7-7-7-7-|-5-------5-0----|


 4/4
  W          S S E S S E S S E S S S S   S S E S S E S S E S S S S
|----------|---------------------------|---------------------------||
|----------|---------------------------|---------------------------||
|----------|---------------------------|---------------------------||
|----------|-2-2-2-2-2-2-2-2-2-0-2-4-0-|-2-2-2-2-2-2-2-2-2-0-2-4-0-||


 Verse
  S S S S S S S S S S S S S S S S   S S S S S S S S S S S S S S S S
|---------------------------------|---------------------------------|
|---------------------------------|---------------------------------|
|---------------------------------|---------------------------------|
|-7-7-7-7-7-7-7-7-7-7-7-7-7-7-7-7-|-3-3-3-3-3-3-3-3-5-5-5-5-2-3-5-0-|


  S S E S S E S S E S S S S   S S E S S E S S E S S S S
|---------------------------|----------------------------|
|---------------------------|----------------------------|
|---------------------------|----------------------------|
|-2-2-2-2-2-2-2-2-2-0-2-4-0-|-2-2-2-2-2-2-2-2-2-0-2-4-0--|


                                                      D.S. al Coda
  S S S S S S S S S S S S S S S S   S S S S S S S S S S S S S S S S
|---------------------------------|---------------------------------|
|---------------------------------|---------------------------------|
|---------------------------------|-3-3-3-3-3-3-3-3-5-5-5-5-5-5-3-2-|
|-7-7-7-7-7-7-7-7-7-7-7-7-7-7-7-7-|---------------------------------|


    &
    S S E S S E S S E S S S S   S S E S S E S S E S S S S
||----------------------------|---------------------------|
||o---------------------------|---------------------------|
||o---------------------------|---------------------------|
||--2-2-2-2-2-2-2-2-2-0-2-4-0-|-2-2-2-2-2-2-2-2-2-0-2-4-0-|


  1.
  S S S S S S S S S S S S S S S S   S S S S S S S S S S S S S S S S
|---------------------------------|----------------------------------||
|---------------------------------|---------------------------------o||
|---------------------------------|---------------------------------o||
|-7-7-7-7-7-7-7-7-7-7-7-7-7-7-7-7-|-3-3-3-3-3-3-3-3-5-5-5-5-2-3-5-0--||


  2.
  S S S S S S S S S S S S S S S S   S S S S S S S S S S S S S S S S
|---------------------------------|---------------------------------||
|---------------------------------|---------------------------------||
|---------------------------------|-3-3-3-3-3-3-3-0-----------0-2---||
|-7-7-7-7-7-7-7-7-7-7-7-7-7-7-7-7-|-----------------5-5-5-5-5-----5-||


 Chorus
  E S S S S S S S S S S S S S S   E S S S S S S E S S S S S S
|-------------------------------|-----------------------------|
|-------------------------------|-----------------------------|
|-------------------------------|-3-3-3-3-3-3-3-3-3-3-3-3-3-4-|
|-7-7-7-7-7-7-7-7-7-7-5-3-3-3-3-|-----------------------------|


  E S S S S S S E S S S S S S   E S S S S S S S S S S S S S S
|-----------------------------|-------------------------------|
|-----------------------------|-------------------------------|
|-----------------------------|-0-0-0-0-0-0-0-0-0-0-0-3-3-2---|
|-0-0-0-0-0-0-0-0-0-3-3-3-5-5-|-----------------------------5-|


  S S S S S S S S S S S S S S S S   E S S S S S S S S S S S S S S
|---------------------------------|-------------------------------|
|---------------------------------|-------------------------------|
|---------------------------------|-------------------------------|
|-7-7-7-7-7-7-7-7-7-7-7-7-5-5-5-5-|-3-3-3-3-3-3-3-0-0-0-0-0-0-0-0-|


  E S S S S S S S S S S S S S S   E S S S S S S S S S S S S S S
|-------------------------------|-------------------------------|
|-------------------------------|-------------------------------|
|-------------------------------|-------------------------------|
|-5-5-5-5-5-5-5-5-5-5-5-5-5-5-5-|-2-2-2-2-2-2-2-3-3-3-3-3-3-3-3-|


  S S S S S S S S S S S S S S S S
|-----------------------------------||
|-----------------------------------||
|-----------------------------------||
|-5-5-5-5-5-5-5-5-5-5-5-5-5-5-5-5---||


  S S S S S S S S S S S S E T T T T   S S S S S S S S S S S S E T T T T
|-----------------------------------|-----------------------------------|
|-----------------------------------|-----------------------------------|
|-----------------------------------|-----------------------------------|
|-5-2-2-3-2-2-5-2-2-3-2-2-2-2-2-2-2-|-5-2-2-3-2-2-5-2-2-3-2-2-2-2-2-2-2-|


  S S S S S S S S S S S S E S S   S S S S S S T T T T E S S S S S S
|-------------------------------|-----------------------------------|
|-------------------------------|-----------------------------------|
|-------------------------------|-----------------------------------|
|-5-2-2-3-2-2-5-2-2-3-2-2-2-2-2-|-5-2-2-3-2-2-2-2-2-2-2-2-0-2-2-0-0-|


  S S S S E S S S S E S S S S   E S S S S E Q  Q
|-----------------------------|-------------------|
|-----------------------------|-------------------|
|-----------------------------|-------------------|
|-2-2-2-2---2-2-2-2---2-2-2-2-|---2-2-2-2---------|


 Breakdown
  S S S S E S S S S E S S S S   E S S S S E E S S S S E
|-----------------------------|-------------------------|
|-----------------------------|-------------------------|
|-----------------------------|-------------------------|
|-0-0-0-0---0-0-0-0---0-0-0-0-|---0-0-0-0---0-0-0-0-0-1-|


                             2/4
  +E  S S S S E S S S S E E   +E  E S S E
|---------------------------|-------------|
|---------------------------|-------3-2---|
|-------------------------0-|-(0)-1-----3-|
|-(1)-0-0-0-0---0-0-0-0-----|-------------|


 4/4
  S S S S E S S S S E S S S S   E S S S S E E S S S S E
|-----------------------------|-------------------------|
|-----------------------------|-------------------------|
|-----------------------------|-------------------------|
|-0-0-0-0---0-0-0-0---0-0-0-0-|---0-0-0-0---0-0-0-0-0-1-|


                               2/4
  +E  S S S S E S S S S E S S   +E  E S S E
|-----------------------------|--------------|
|-----------------------------|-------3-2----|
|-------------------------0-0-|-(0)-1-----3--|
|-(1)-0-0-0-0---0-0-0-0-------|--------------|


 Bridge
 4/4
  Q  Q  Q  Q    Q  Q  Q  Q    Q  Q  Q  Q    Q  Q  Q  Q
|-------------|-------------|-------------|--------------|
|-------------|-------------|-------------|--------------|
|-------------|-------------|-------------|--------------|
|-2--2--2--2--|-1--1--1--1--|-2--2--2--2--|-7--7--9--9---|


  Q  Q  Q  Q    Q  Q  Q  Q    E E E +E  +H       H    H
|-------------|-------------|------------------|-----------|
|-------------|-------------|------------------|-----------|
|-------------|-------------|------------------|-----------|
|-2--2--2--2--|-1--1--1--1--|-2-2-2-(2)-(2)----|-7----3----|


  S S S S E S S S S E Q    S S S S E S S S S E S S S S
|------------------------|-----------------------------|
|------------------------|-----------------------------|
|------------------------|-----------------------------|
|-0-0-0-0---0-0-0-0------|-0-0-0-0---0-0-0-0---0-0-0-0-|


  E S S S S E E S S S S E
|--------------------------|
|--------------------------|
|--------------------------|
|---0-0-0-0---0-0-0-0-0-1--|


                             2/4           4/4
  +E  S S S S E S S S S E E   +E  E S S E   S S S S E S S S S E S S S S
|---------------------------|-------------|-----------------------------|
|---------------------------|-------3-2---|-----------------------------|
|-------------------------0-|-(0)-1-----3-|-----------------------------|
|-(1)-0-0-0-0---0-0-0-0-----|-------------|-2-2-2-2---2-2-2-2---2-2-2-2-|


                                                       2/4           4/4
  E S S S S E E S S S S E   +E  S S S S E S S S S E E   +E  E S S E   W
|-------------------------|---------------------------|-------------|------||
|-------------------------|---------------------------|-------------|------||
|-------------------------|-------------------------2-|-(2)-2-3-2---|------||
|---2-2-2-2---2-2-2-2-2-3-|-(3)-2-2-2-2---2-2-2-2-----|-----------5-|------||


 Chorus
  E E E E E E E E   E S S S S S S S S S S S S S S
|-----------------|-------------------------------|
|-----------------|-------------------------------|
|-----------------|-3-3-3-3-3-3-3-3-3-3-3-3-3-3-3-|
|-7-7-7-7-7-7-3-3-|-------------------------------|


  E S S S S S S S S S S S S S S
|--------------------------------|
|--------------------------------|
|--------------------------------|
|-0-0-0-0-0-0-0-0-0-0-0-0-0-0-0--|


  E S S S S S S S S S S S S S S   E S S S S S S S S S S S S S S
|-------------------------------|--------------------------------|
|-------------------------------|--------------------------------|
|-------------------------------|--------------------------------|
|-7-7-7-7-7-7-7-7-7-7-7-7-7-7-7-|-7-7-7-7-7-7-7-7-7-7-7-5-5-5-5--|


  E S S S S S S S S S S S S S S   E S S S S S S S S S S S S S S
|-------------------------------|--------------------------------|
|-------------------------------|--------------------------------|
|-------------------------------|--------------------------------|
|-3-3-3-3-3-3-3-0-0-0-0-0-0-0-0-|-5-5-5-5-5-5-5-5-5-5-5-5-5-5-5--|


  E S S S S S S E S S S S S S   S S S S S S S S S S S S S S S S
|-----------------------------|----------------------------------|
|-----------------------------|----------------------------------|
|-------------------------0---|-------------------------------0--|
|-2-2-2-2-2-2-2-3-3-3-3-3---3-|-5-5-5-5-5-5-5-5-5-5-5-5-5-4-5----|


 Out-Chorus
  S S S S S S S S S S S S S S S S   S S S S S S S S S S S S S S S S
|---------------------------------|---------------------------------|
|---------------------------------|---------------------------------|
|-2-2-2-2-2-2-2-2-2-2-2-2-0-0-0-0-|-5-5-5-5-5-5-5-5-5-5-5-5-5-------|
|---------------------------------|---------------------------0-0-1-|


  S S S S S S S S S S S S S S S S   S S S S S S S S S S S S S S S S
|---------------------------------|---------------------------------|
|---------------------------------|---------------------------------|
|---------------------------------|-2-2-2-2-2-2-2-2-5-5-5-4-5-4-2-0-|
|-2-2-2-2-2-2-2-2-2-2-2-2-5-5-7-7-|---------------------------------|


  S S S S S S S S S S S S S S S S   S S S S S S S S S S S S S S S S
|---------------------------------|---------------------------------|
|---------------------------------|---------------------------------|
|-2-2-2-2-2-2-2-2-2-2-2-2-0-0-0-0-|---------------------------------|
|---------------------------------|-5-5-5-5-5-5-5-5-2-2-2-2-2-2-2-2-|


  S S S S S S S S S S S S S S S S   S S S S S S S S S S S S S S S S
|---------------------------------|---------------------------------|
|---------------------------------|---------------------------------|
|-0-0-0-0-0-0-0-0-0-0-0-0-0-0-0-0-|---------------------------------|
|---------------------------------|-5-5-5-5-5-5-5-5-5-5-5-5-5-5-5-5-|


  S S S S S S S S S S S S S S S S   S S Q  S H    S   W
|---------------------------------|-----------------|------*|
|---------------------------------|-----------------|------*|
|-0-0-0-0-0-0-0-0-0-0-0-0-0-0-0-0-|-2-2----2-2------|------*|
|---------------------------------|-----------------|------*|



Duration Legend
---------------
W - whole; H - half; Q - quarter; E - 8th; S - 16th; T - 32nd; X - 64th; a - acciaccatura
+ - note tied to previous; . - note dotted; .. - note double dotted
Uncapitalized letters represent notes that are staccato (1/2 duration)
Irregular groupings are notated above the duration line
Duration letters will always appear directly above the note/fret number it represents the
duration for.  Duration letters with no fret number below them represent rests.  Multi-
bar rests are notated in the form Wxn, where n is the number of bars to rest for.  Low
melody durations appear below the staff

Tablature Legend
----------------
 h   - hammer-on
 p   - pull-off
 b   - bend
 pb  - pre-bend
 r   - bend release (if no number after the r, then release immediately)
 /\  - slide into or out of (from/to "nowhere")
 s   - legato slide
 S   - shift slide
 - natural harmonic
[n]  - artificial harmonic
n(n) - tapped harmonic
 ~   - vibrato
 tr  - trill
 T   - tap
 TP  - trem. picking
 PM  - palm muting
\n/  - tremolo bar dip; n = amount to dip
 \n  - tremolo bar down
 n/  - tremolo bar up
/n\  - tremolo bar inverted dip
 =   - hold bend; also acts as connecting device for hammers/pulls
 <> - volume swell (louder/softer)
 x   - on rhythm slash represents muted slash
 o   - on rhythm slash represents single note slash

Misc Legend
-----------
 |  - bar
||  - double bar
||o - repeat start
o|| - repeat end
*|  - double bar (ending)
 :  - bar (freetime)
 $  - Segno
 &  - Coda
Tempo markers -  = BPM(8/16=s8/s16), where s8 = swing 8ths, s16 = swing 16ths

Suggest correction
Give kudos to tab author, rate the tab!
1 2 3 4 5
comments
print report bad tab
1 comment total.
0 reply
Zaqq 589 wrote on October 14 2012, 12:52 pm

Listen to the actual bass track: http://www.youtube.com/watch?v=xmEkulaQNNc
You'll notice that the very beginning is wrong. I haven't checked the whole song though.

guest
You may want to rate the tab now too:
select rating
Please do not post tabs as comments. Select "correction" instead!