Oops, an error
Loading. Please wait.

Dead Boys Poem Tab

version 2
version 2

Whole song

Interactive

272 views 1 this week
no commentswrite comment
1 2 3 4 5
please rate
add to favorites
launch autoscroll
font size
0
reset
how to read this tab
guitar tuner
Tab Pro tools
  • play this tab
  • loop segment
  • change instrument
  • show fretboard
  • metronome
×
Best way to learn
"Dead Boys Poem"
Autoscroll
slow
fast
+/-
esc
set tempo
stop
Contributor
Difficulty
novice
                                                                       Nightwish
Ac.Guitar



     W                   W                   H        S S S S S S S S
E||-------------------|-------------------|-----------1-----1---------|
B||-------------------|-------------------|-------------3-----3---3---|
G||-------------------|-------------------|---------------2-----2---2-|
D||-------------------|-------------------|---------------------------|
A||-------------------|-------------------|---------------------------|
E||-------------------|-------------------|---------------------------|


  S S S S S S S S S S S S S S S S    S S S S S S S S S S S S S S S S
--1-----1-0-----0-3-----3-----3---|--0-----0---------1-----0---------|
----1-------1-------3-----3-----3-|----1-----1---1-----3-----3---3---|
------0-------0-------0-----0-----|------2-----2---2-----2-----2---2-|
----------------------------------|------------------0---------------|
--3-------------------------------|--0-------------------------------|
------------------3---------------|----------------------------------|


  S S S S S S S S S S S S S S S S    S S S S S S S S S S S S S S S S
--3-----1---------1-----1-0-----0-|------------------1-----1---------|
----3-----3---3-----1-------1-----|--3-----3-----3-----3-----3---3---|
------0-----0---0-----0-------0---|----3-----3-----3-----3-----3---3-|
----------------------------------|------3-----3---------------------|
------------------3---------------|--1-------------------------------|
--3-------------------------------|------------------3---------------|


  S S S S S S S S S S S S S S S S    S S S S S S S S S S S S S S S S
--1-----0---------1-----0---------|--0-----0---------1-----0---------|
----3-----3---3-----3-----3---3---|----1-----1---1-----3-----3---3---|
------2-----2---2-----2-----2---2-|------2-----2---2-----2-----2---2-|
--0---------------0---------------|------------------0---------------|
----------------------------------|--0-------------------------------|
----------------------------------|----------------------------------|


  S S S S S S S S S S S S S S S S    S S S S S S S S S S S S S S S S
--3-----1---------1-----1-0-----0-|--0-----0---------1-----0---------|
----3-----3---3-----1-------1-----|----1-----1---1-----3-----3---3---|
------0-----0---0-----0-------0---|------2-----2---2-----2-----2---2-|
----------------------------------|------------------0---------------|
------------------3---------------|--0-------------------------------|
--3-------------------------------|----------------------------------|


  S S S S S S S S S S S S S S S S    S S S S S S S S S S S S S S S S
--1-----1-0-----0-3-----3---------|--0-----0---------1-----0---------|
----1-------1-------3-----3---3---|----1-----1---1-----3-----3---3---|
------0-------0-------0-----0---0-|------2-----2---2-----2-----2---2-|
----------------------------------|------------------0---------------|
--3-------------------------------|--0-------------------------------|
------------------3---------------|----------------------------------|


  S S S S S S S S S S S S S S S S    S S S S S S S S S S S S S S S S
--3-----1---------1-----1-0-----0-|------------------1-----1---------|
----3-----3---3-----1-------1-----|--3-----3-----3-----3-----3---3---|
------0-----0---0-----0-------0---|----3-----3-----3-----3-----3---3-|
----------------------------------|------3-----3---------------------|
------------------3---------------|--1-------------------------------|
--3-------------------------------|------------------3---------------|

Dist. Guitar
  H        E  E  S S E     W                   H        Q.     S S
------------------------|-------------------|----------------------|
------------------------|-------------------|----------------------|
------------------------|-------------------|----------------------|
--------------3--3-3-3--|-------------------|-----------5----------|
--------------1--1-1-1--|--5----------------|--3--------3------1-0-|
------------------------|--3----------------|--1-------------------|


  W                   E.  E.  E  Q    Q       W
-------------------|-----------------------|-------------------|
-------------------|-----------------------|-------------------|
-------------------|--3---3----------------|-------------------|
-------------------|--1---1---3--3----2----|-------------------|
--5----------------|----------1--1----0----|--5----------------|
--3----------------|-----------------------|--3----------------|


  H        Q    Q       W                   H        H
---------------------|-------------------|--------------------|
---------------------|-------------------|--------------------|
----------------2----|--3----------------|--------------------|
-----------5----0----|--1----------------|--3-----------------|
--3--------3---------|-------------------|--1--------3--------|
--1------------------|-------------------|-----------1--------|

Solo

  W                   Q    Q    Q    Q       Q    S. T S S Q.     S S
-------------------|-------5----5---------|--5----L----6-5-3------L---|
-------------------|-----------------6----|---------------------------|
-------------------|----------------------|---------------------------|
-------------------|----------------------|---------------------------|
-------------------|----------------------|---------------------------|
-------------------|----------------------|---------------------------|


  Q    Q    Q    E.  T T    Q    S. T E  Q.     S S    Q    Q    Q    E.  T T
-------5----5------------|--3----L----1-------------|-------5----5-----------|
-----------------6---L---|---------------3------L---|-----------------6---L--|
-------------------------|--------------------------|------------------------|
-------------------------|--------------------------|------------------------|
-------------------------|--------------------------|------------------------|
-------------------------|--------------------------|------------------------|

  Q    S. T S S H           H.           S S S S    E.  E.  S S Q.     S S
--5----L----6-5-3--------|--L------------L---3-5-|--6----------------------|
-------------------------|-----------------------|------6---4-3-1------L---|
-------------------------|-----------------------|-------------------------|
-------------------------|-----------------------|-------------------------|
-------------------------|-----------------------|-------------------------|
-------------------------|-----------------------|-------------------------|
comments
We did not receive enough feedback on this tab! Please rate:
print report bad tab
1 2 3 4 5
I want to post or [tab]
guest
You may want to rate the tab now too:
select rating
Please do not post tabs as comments. Select "correction" instead!