Oops, an error
Loading. Please wait.

Deep Silent Complete Bass Tab

version 1
version 1

Whole song

1,439 views 1 this week
no commentswrite comment
1 2 3 4 5
excellent!
x 3
add to favorites
launch autoscroll
font size
0
reset
guitar tuner
Autoscroll
slow
fast
+/-
esc
set tempo
stop
Help us to improve Ultimate-Guitar.com Take our survey!
×
#----------------------------------PLEASE NOTE---------------------------------#
#This file is the author's own work and represents their interpretation of the #
#song. You may only use this file for private study, scholarship, or research. #
#------------------------------------------------------------------------------#

DEEP SILENT COMPLETE (Bassline)
As recorded by Nightwish
(From the 2000 Album WISHMASTER)

Transcribed by Alexander Sobolev
	

Words and Music by Tuomas Holopainen

Gtr I (E A D G) - 'Sami Vanska'

 Intro - Keyboard
  Moderate Rock Q=141
 4/4
  Gtr I
  Wx17
|---------|
|---------|
|---------|
|---------|


 Intro - Riff 1
  Moderately Fast Rock Q=183
  W          W          W          +W
|----------|----------|----------|--------|
|----------|----------|----------|--------|
|----------|----------|----------|--------|
|-1--------|-0--------|-5--------|-(5)----|


  W          W          W          +W
|----------|----------|----------|--------|
|----------|----------|----------|--------|
|----------|----------|----------|--------|
|-1--------|-3--------|-5--------|-(5)----|


  E E E E E E E E   E E E E E E E E   E E E E E E E E   E E E E E E E E
|-----------------|-----------------|-----------------|-----------------|
|-----------------|-0-0-0-0-0-0-0-0-|-----------------|-----------------|
|-----------------|-----------------|-0-0-0-0-0-0-0-0-|-0-0-0-0-0-0-0-0-|
|-1-1-1-1-1-1-1-1-|-----------------|-----------------|-----------------|


  E E E E E E E E   E E E E E E E E   E E E E E E E E   E E E E Q  Q
|-----------------|-----------------|-----------------|---------------|
|-0-0-0-0-0-0-0-0-|-----------------|-----------------|---------------|
|-----------------|-0-0-0-0-0-0-0-0-|-----------------|---------3--2--|
|-----------------|-----------------|-3-3-3-3-3-3-3-3-|-0-0-0-0-------|


 Verse 1
  Am                      Em
  W          +W           W          +W
|----------|------------|----------|--------|
|----------|------------|----------|--------|
|-0--------|-(0)--------|----------|--------|
|----------|------------|-0--------|-(0)----|


  G                       Am         Dm   G
  W          +W           W          H    H
|----------|------------|----------|-----------|
|----------|------------|----------|-----------|
|----------|------------|-0--------|-5---------|
|-3--------|-(3)--------|----------|------3----|


  Am                      Em
  W          +W           W          +W
|----------|------------|----------|--------|
|----------|------------|----------|--------|
|-0--------|-(0)--------|----------|--------|
|----------|------------|-0--------|-(0)----|


  G                       F          G
  W          +W           W          W
|----------|------------|----------|------|
|----------|------------|----------|------|
|----------|------------|----------|------|
|-3--------|-(3)--------|-1--------|-3----|


 Bridge
  E E E E E E E E   E E E E E E E E   E E E E E E E E   E E E E E E E E
|-----------------|-----------------|-----------------|-----------------|
|-----------------|-----------------|-----------------|-----------------|
|-----------------|-----------------|-0-0-0-0-0-0-0-0-|-0-0-0-0-0-0-0-0-|
|-1-1-1-1-1-1-1-1-|-0-0-0-0-0-0-0-0-|-----------------|-----------------|


  E E E E E E E E   E E E E E E E E   E E E E E E E E   E E E E E E E E
|-----------------|-----------------|-----------------|-----------------|
|-----------------|-----------------|-----------------|-----------------|
|-----------------|-----------------|-0-0-0-0-0-0-0-0-|-0-0-0-0-0-0-0-0-|
|-1-1-1-1-1-1-1-1-|-3-3-3-3-3-3-3-3-|-----------------|-----------------|


  E E E E E E E E   E E E E E E E E   E E E E E E E E   E E E E E E E E
|-----------------|-----------------|-----------------|-----------------|
|-----------------|-0-0-0-0-0-0-0-0-|-----------------|-----------------|
|-----------------|-----------------|-0-0-0-0-0-0-0-0-|-0-0-0-0-0-0-0-0-|
|-1-1-1-1-1-1-1-1-|-----------------|-----------------|-----------------|


  E E E E E E E E   E E E E E E E E   E E E E E E E E   E E E E Q  Q
|-----------------|-----------------|-----------------|---------------|
|-0-0-0-0-0-0-0-0-|-----------------|-----------------|---------------|
|-----------------|-0-0-0-0-0-0-0-0-|-----------------|---------3--2--|
|-----------------|-----------------|-3-3-3-3-3-3-3-3-|-0-0-0-0-------|


 Verse 2
  W          +W           W          +W
|----------|------------|----------|--------|
|----------|------------|----------|--------|
|-0--------|-(0)--------|----------|--------|
|----------|------------|-0--------|-(0)----|


  W          +W           W          H    H
|----------|------------|----------|-----------|
|----------|------------|----------|-----------|
|----------|------------|-0--------|-5---------|
|-3--------|-(3)--------|----------|------3----|


  W          +W           W          +W
|----------|------------|----------|--------|
|----------|------------|----------|--------|
|-0--------|-(0)--------|----------|--------|
|----------|------------|-0--------|-(0)----|


  W          +W           W          W
|----------|------------|----------|------|
|----------|------------|----------|------|
|----------|------------|----------|------|
|-3--------|-(3)--------|-1--------|-3----|


   Bridge
    Half-time Q=92
    W          W          W          W
||-----------|----------|----------|-------||
||o-0--------|----------|-0--------|------o||
||o----------|----------|----------|------o||
||-----------|-1--------|----------|-3-----||


 Verse 3
  Wx8
|--------|
|--------|
|--------|
|--------|


 Bridge
  W          W          W          W
|----------|----------|----------|------|
|-0--------|----------|-0--------|------|
|----------|----------|----------|------|
|----------|-1--------|----------|-3----|


 Riff 1 (Repeat)
  In Tempo Q=183
  W          W          W          +W
|----------|----------|----------|--------|
|----------|----------|----------|--------|
|----------|----------|----------|--------|
|-1--------|-0--------|-5--------|-(5)----|


  W          W          W          +W
|----------|----------|----------|--------|
|----------|----------|----------|--------|
|----------|----------|----------|--------|
|-1--------|-3--------|-5--------|-(5)----|


  E E E E E E E E   E E E E E E E E   E E E E E E E E   E E E E E E E E
|-----------------|-----------------|-----------------|-----------------|
|-----------------|-0-0-0-0-0-0-0-0-|-----------------|-----------------|
|-----------------|-----------------|-0-0-0-0-0-0-0-0-|-0-0-0-0-0-0-0-0-|
|-1-1-1-1-1-1-1-1-|-----------------|-----------------|-----------------|


  E E E E E E E E   E E E E E E E E   E E E E E E E E   E E E E Q  Q
|-----------------|-----------------|-----------------|---------------|
|-0-0-0-0-0-0-0-0-|-----------------|-----------------|---------------|
|-----------------|-0-0-0-0-0-0-0-0-|-----------------|---------3--2--|
|-----------------|-----------------|-3-3-3-3-3-3-3-3-|-0-0-0-0-------|


 Outro
  E E E E E E E E   E E E E E E E E   E E E E E E E E   E E E E E E E E
|-----------------|-----------------|-----------------|-----------------|
|-----------------|-----------------|-----------------|-----------------|
|-----------------|-----------------|-0-0-0-0-0-0-0-0-|-0-0-0-0-0-0-0-0-|
|-1-1-1-1-1-1-1-1-|-0-0-0-0-0-0-0-0-|-----------------|-----------------|


  E E E E E E E E   E E E E E E E E   E E E E E E E E   E E E E E E E E
|-----------------|-----------------|-----------------|-----------------|
|-----------------|-----------------|-----------------|-----------------|
|-----------------|-----------------|-0-0-0-0-0-0-0-0-|-0-0-0-0-0-0-0-0-|
|-1-1-1-1-1-1-1-1-|-3-3-3-3-3-3-3-3-|-----------------|-----------------|


  E E E E E E E E   E E E E E E E E   E E E E E E E E   E E E E E E E E
|-----------------|-----------------|-----------------|-----------------|
|-----------------|-0-0-0-0-0-0-0-0-|-----------------|-----------------|
|-----------------|-----------------|-0-0-0-0-0-0-0-0-|-0-0-0-0-0-0-0-0-|
|-1-1-1-1-1-1-1-1-|-----------------|-----------------|-----------------|


  E E E E E E E E   E E E E E E E E   E E E E E E E E   E E E E Q  Q
|-----------------|-----------------|-----------------|---------------|
|-0-0-0-0-0-0-0-0-|-----------------|-----------------|---------------|
|-----------------|-0-0-0-0-0-0-0-0-|-----------------|---------3--2--|
|-----------------|-----------------|-3-3-3-3-3-3-3-3-|-0-0-0-0-------|


 Outro - Fade
  E E E E E E E E   E E E E E E E E   E E E E E E E E   E E E E E E E E
|-----------------|-----------------|-----------------|-----------------|
|-----------------|-----------------|-----------------|-----------------|
|-----------------|-----------------|-0-0-0-0-0-0-0-0-|-0-0-0-0-0-0-0-0-|
|-1-1-1-1-1-1-1-1-|-0-0-0-0-0-0-0-0-|-----------------|-----------------|


  E E E E E E E E   E E E E E E E E   E E E E E E E E   E E E E E E E E
|-----------------|-----------------|-----------------|-----------------|
|-----------------|-----------------|-----------------|-----------------|
|-----------------|-----------------|-0-0-0-0-0-0-0-0-|-0-0-0-0-0-0-0-0-|
|-1-1-1-1-1-1-1-1-|-3-3-3-3-3-3-3-3-|-----------------|-----------------|


  E E E E E E E E   E E E E E E E E   E E E E E E E E   E E E E E E E E
|-----------------|-----------------|-----------------|-----------------|
|-----------------|-0-0-0-0-0-0-0-0-|-----------------|-----------------|
|-----------------|-----------------|-0-0-0-0-0-0-0-0-|-0-0-0-0-0-0-0-0-|
|-1-1-1-1-1-1-1-1-|-----------------|-----------------|-----------------|


  E E E E E E E E   E E E E E E E E   E E E E E E E E   E E E E Q  Q
|-----------------|-----------------|-----------------|---------------|
|-0-0-0-0-0-0-0-0-|-----------------|-----------------|---------------|
|-----------------|-0-0-0-0-0-0-0-0-|-----------------|---------3--2--|
|-----------------|-----------------|-3-3-3-3-3-3-3-3-|-0-0-0-0-------|


  E E E E E E E E   E E E E E E E E   E E E E E E E E   E E E E E E E E
|-----------------|-----------------|-----------------|-----------------*|
|-----------------|-----------------|-----------------|-----------------*|
|-----------------|-----------------|-0-0-0-0-0-0-0-0-|-0-0-0-0-0-0-0-0-*|
|-1-1-1-1-1-1-1-1-|-0-0-0-0-0-0-0-0-|-----------------|-----------------*|



Duration Legend
---------------
W - whole; H - half; Q - quarter; E - 8th; S - 16th; T - 32nd; X - 64th; a - acciaccatura
+ - note tied to previous; . - note dotted; .. - note double dotted
Uncapitalized letters represent notes that are staccato (1/2 duration)
Irregular groupings are notated above the duration line
Duration letters will always appear directly above the note/fret number it represents the
duration for.  Duration letters with no fret number below them represent rests.  Multi-
bar rests are notated in the form Wxn, where n is the number of bars to rest for.  Low
melody durations appear below the staff

Tablature Legend
----------------
 h   - hammer-on
 p   - pull-off
 b   - bend
 pb  - pre-bend
 r   - bend release (if no number after the r, then release immediately)
 /\  - slide into or out of (from/to "nowhere")
 s   - legato slide
 S   - shift slide
 - natural harmonic
[n]  - artificial harmonic
n(n) - tapped harmonic
 ~   - vibrato
 tr  - trill
 T   - tap
 TP  - trem. picking
 PM  - palm muting
\n/  - tremolo bar dip; n = amount to dip
 \n  - tremolo bar down
 n/  - tremolo bar up
/n\  - tremolo bar inverted dip
 =   - hold bend; also acts as connecting device for hammers/pulls
 <> - volume swell (louder/softer)
 x   - on rhythm slash represents muted slash
 o   - on rhythm slash represents single note slash

Misc Legend
-----------
 |  - bar
||  - double bar
||o - repeat start
o|| - repeat end
*|  - double bar (ending)
 :  - bar (freetime)
 $  - Segno
 &  - Coda
Tempo markers -  = BPM(8/16=s8/s16), where s8 = swing 8ths, s16 = swing 16ths

Suggest correction
Give kudos to tab author, rate the tab!
1 2 3 4 5
comments
print report bad tab
guest
You may want to rate the tab now too:
select rating
Please do not post tabs as comments. Select "correction" instead!