Oops, an error
Loading. Please wait.

Deep Silent Complete Tab

version 2
version 2

Whole song

1,262 views 1 this week
no commentswrite comment
1 2 3 4 5
please rate
add to favorites
launch autoscroll
font size
0
reset
how to read this tab
guitar tuner
Tab Pro tools
  • play this tab
  • loop segment
  • change instrument
  • show fretboard
  • metronome
×
Best way to learn
"Deep Silent Complete"
Autoscroll
slow
fast
+/-
esc
set tempo
stop
Contributor
#----------------------------------PLEASE NOTE---------------------------------#
#This file is the author's own work and represents their interpretation of the #
#song. You may only use this file for private study, scholarship, or research. #
#------------------------------------------------------------------------------#

DEEP SILENT COMPLETE
As recorded by Nightwish
(From the 2000 Album WISHMASTER)

Transcribed by Alexander Sobolev
        

Words and Music by Tuomas Holopainen

Gtr I (E A D G B E) - 'Emppu Vuorinen'
Gtr II (E A D G B E) - 'Emppu Vuorinen'
Gtr III (E A D G B E) - 'Tarja Turunen'

 Intro - Vocal
  Moderate Rock Q=141
  N.C.
 4/4
  Gtr III
   Q   H     Q     H     H      W          +W
|---------------|-------------|----------|--------|
|-13--12----10--|-------------|----------|--------|
|---------------|-12----------|-9--------|-(9)----|
|---------------|-------12----|----------|--------|
|---------------|-------------|----------|--------|
|---------------|-------------|----------|--------|


   W           H     H      W          +W
|-----------|-------------|----------|--------|
|-10--------|-------------|----------|--------|
|-----------|-12----------|-9--------|-(9)----|
|-----------|-------12----|----------|--------|
|-----------|-------------|----------|--------|
|-----------|-------------|----------|--------|


   H     H       Q.    Q.    Q     W           +W
|-------12----|-----------------|-----------|---------|
|-13----------|-15----------12--|-13--------|-(13)----|
|-------------|-------14--------|-----------|---------|
|-------------|-----------------|-----------|---------|
|-------------|-----------------|-----------|---------|
|-------------|-----------------|-----------|---------|


                                                            >
   W           Q.    Q.    Q     W           +W            +W
|-13--------|-15----13----12--|-----------|-------------|---------|
|-----------|-----------------|-15--------|-(15)--------|-(15)----|
|-----------|-----------------|-----------|-------------|---------|
|-----------|-----------------|-----------|-------------|---------|
|-----------|-----------------|-----------|-------------|---------|
|-----------|-----------------|-----------|-------------|---------|


 Intro - Riff 1
  Moderately Fast Rock Q=183
  F5                E5             A5
  Gtr II
   Q.    Q.    Q      H     H       H     H       +W
|-----------------|--------------|-------------|---------|
|-13----12----10--|--------------|-------10----|-(10)----|
|-----------------|-/12----------|-/9----------|---------|
|-----------------|--------12----|-------------|---------|
|-----------------|--------------|-------------|---------|
|-----------------|--------------|-------------|---------|
|
| Gtr I
|  W                  W             W             +W
|-----------------|--------------|-------------|---------|
|-----------------|--------------|-------------|---------|
|-----------------|--------------|-------------|---------|
|--3--------------|---2----------|--7----------|--(7)----|
|--3--------------|---2----------|--7----------|--(7)----|
|--1--------------|---0----------|--5----------|--(5)----|


  F5             G5             A5
   H.       Q      H     H      W          +W
|--------------|--------------|----------|--------|
|-10-------10--|--------------|----------|--------|
|--------------|-/12----------|-9--------|-(9)----|
|--------------|--------12----|----------|--------|
|--------------|--------------|----------|--------|
|--------------|--------------|----------|--------|
|
|  W               W            W          +W
|--------------|--------------|----------|--------|
|--------------|--------------|----------|--------|
|--------------|--------------|----------|--------|
|--3-----------|---5----------|-7--------|-(7)----|
|--3-----------|---5----------|-7--------|-(7)----|
|--1-----------|---3----------|-5--------|-(5)----|


  F5                  D5
   H        H           Q.      Q.      Q
|----------12-------|-----------------------|
|-13----------------|-/15--------------12---|
|-------------------|----------14-----------|
|-------------------|-----------------------|
|-------------------|-----------------------|
|-------------------|-----------------------|
|
|  PM|   PM|    PM      PM-|    PM-|    PM
|  E E E E  E E E E     E  E E  E  E E  E E
|-------------------|-----------------------|
|-------------------|-----------------------|
|-------------------|--------7-------7----7-|
|------3------3---3-|--------7-------7----7-|
|------3------3---3-|---5--5-5--5--5-5--5-5-|
|--1-1-1-1--1-1-1-1-|-----------------------|


  A5
   W                  +W
|------------------|--------------------|
|-13---------------|-(13)---------------|
|------------------|--------------------|
|------------------|--------------------|
|------------------|--------------------|
|------------------|--------------------|
|
|  PM|   PM|   PM      PM-|   PM|   PM
|  E E E E E E E E     E  E E E E E E E
|------------------|--------------------|
|------------------|--------------------|
|------------------|--------------------|
|------7-----7---7-|--------7-----7---7-|
|------7-----7---7-|--------7-----7---7-|
|--5-5-5-5-5-5-5-5-|---5--5-5-5-5-5-5-5-|


  D5                 A5
   W                   Q.      Q.      Q
|-13---------------|-/15------13------12---|
|------------------|-----------------------|
|------------------|-----------------------|
|------------------|-----------------------|
|------------------|-----------------------|
|------------------|-----------------------|
|
|  PM|   PM|   PM      PM-|    PM-|    PM
|  E E E E E E E E     E  E E  E  E E  E E
|------------------|-----------------------|
|------------------|-----------------------|
|------7-----7---7-|-----------------------|
|------7-----7---7-|--------7-------7----7-|
|--5-5-5-5-5-5-5-5-|--------7-------7----7-|
|------------------|---5--5-5--5--5-5--5-5-|


  G5                  E5        C5 B5
                        >
    W                  +W
|-------------------|-----------------|
|-/15---------------|-(15)------------|
|-------------------|-----------------|
|-------------------|-----------------|
|-------------------|-----------------|
|-------------------|-----------------|
|
|   PM|   PM|   PM      PM    PM
|   E E E E E E E E     E  Q  E Q  Q
|-------------------|-----------------|
|-------------------|-----------------|
|-------------------|-----------5--4--|
|-------5-----5---5-|------2----5--4--|
|-------5-----5---5-|------2----3--2--|
|---3-3-3-3-3-3-3-3-|---0--0--0-------|


 Verse 1
  Gtr I
  Wx16
|---------|
|---------|
|---------|
|---------|
|---------|
|---------|


 Bridge
  F5                E5                A5
  PM|   PM|   PM    PM|   PM|   PM    PM|   PM|   PM    PM|   PM|   PM
  E E E E E E E E   E E E E E E E E   E E E E E E E E   E E E E E E E E
|-----------------|-----------------|-----------------|-----------------|
|-----------------|-----------------|-----------------|-----------------|
|-----------------|-----------------|-----------------|-----------------|
|-----3-----3---3-|-----2-----2---2-|-----7-----7---7-|-----7-----7---7-|
|-----3-----3---3-|-----2-----2---2-|-----7-----7---7-|-----7-----7---7-|
|-1-1-1-1-1-1-1-1-|-0-0-0-0-0-0-0-0-|-5-5-5-5-5-5-5-5-|-5-5-5-5-5-5-5-5-|


  F5                G5                A5
  PM|   PM|   PM    PM|   PM|   PM    PM|   PM|   PM    PM|   PM|   PM
  E E E E E E E E   E E E E E E E E   E E E E E E E E   E E E E E E E E
|-----------------|-----------------|-----------------|-----------------|
|-----------------|-----------------|-----------------|-----------------|
|-----------------|-----------------|-----------------|-----------------|
|-----3-----3---3-|-----5-----5---5-|-----7-----7---7-|-----7-----7---7-|
|-----3-----3---3-|-----5-----5---5-|-----7-----7---7-|-----7-----7---7-|
|-1-1-1-1-1-1-1-1-|-3-3-3-3-3-3-3-3-|-5-5-5-5-5-5-5-5-|-5-5-5-5-5-5-5-5-|


  F5                D5                A5
  PM|   PM|   PM    PM|   PM|   PM    PM|   PM|   PM    PM|   PM|   PM
  E E E E E E E E   E E E E E E E E   E E E E E E E E   E E E E E E E E
|-----------------|-----------------|-----------------|-----------------|
|-----------------|-----------------|-----------------|-----------------|
|-----------------|-----7-----7---7-|-----------------|-----------------|
|-----3-----3---3-|-----7-----7---7-|-----7-----7---7-|-----7-----7---7-|
|-----3-----3---3-|-5-5-5-5-5-5-5-5-|-----7-----7---7-|-----7-----7---7-|
|-1-1-1-1-1-1-1-1-|-----------------|-5-5-5-5-5-5-5-5-|-5-5-5-5-5-5-5-5-|


  D5         A5         G5         E5     C5 B5
                                   PM   PM
  W          W          W          E Q  E Q  Q
|----------|----------|----------|--------------|
|----------|----------|----------|--------------|
|-7--------|----------|----------|--------5--4--|
|-7--------|-7--------|-5--------|---2----5--4--|
|-5--------|-7--------|-5--------|---2----3--2--|
|----------|-5--------|-3--------|-0-0--0-------|


 Verse 2
  Wx16
|---------|
|---------|
|---------|
|---------|
|---------|
|---------|


   Bridge
    Half-time Q=92
    D5         F5         D5         G5
    ~~~~~~~~~~~~~~~~~~~~~~~~~~~~~~~~~~~
    W          W          W          W
||-----------|----------|----------|-------||
||o----------|----------|----------|------o||
||--7--------|----------|-7--------|-------||
||--7--------|-3--------|-7--------|-5-----||
||o-5--------|-3--------|-5--------|-5----o||
||-----------|-1--------|----------|-3-----||


 Verse 3
  Wx8
|--------|
|--------|
|--------|
|--------|
|--------|
|--------|


 Bridge
  D5         F5         D5         G5
  ~~~~~~~~~~~~~~~~~~~~~~~~~~~~~~~~~~~
  W          W          W          W
|----------|----------|----------|------|
|----------|----------|----------|------|
|-7--------|----------|-7--------|------|
|-7--------|-3--------|-7--------|-5----|
|-5--------|-3--------|-5--------|-5----|
|----------|-1--------|----------|-3----|


 Riff 1 (Repeat)
  In Tempo Q=183
  F5         E5         A5
  W          W          W          +W
|----------|----------|----------|--------|
|----------|----------|----------|--------|
|----------|----------|----------|--------|
|-3--------|-2--------|-7--------|-(7)----|
|-3--------|-2--------|-7--------|-(7)----|
|-1--------|-0--------|-5--------|-(5)----|


  F5         G5         A5
  W          W          W          +W
|----------|----------|----------|--------|
|----------|----------|----------|--------|
|----------|----------|----------|--------|
|-3--------|-5--------|-7--------|-(7)----|
|-3--------|-5--------|-7--------|-(7)----|
|-1--------|-3--------|-5--------|-(5)----|


  F5                D5                A5
  PM|   PM|   PM    PM|   PM|   PM    PM|   PM|   PM    PM|   PM|   PM
  E E E E E E E E   E E E E E E E E   E E E E E E E E   E E E E E E E E
|-----------------|-----------------|-----------------|-----------------|
|-----------------|-----------------|-----------------|-----------------|
|-----------------|-----7-----7---7-|-----------------|-----------------|
|-----3-----3---3-|-----7-----7---7-|-----7-----7---7-|-----7-----7---7-|
|-----3-----3---3-|-5-5-5-5-5-5-5-5-|-----7-----7---7-|-----7-----7---7-|
|-1-1-1-1-1-1-1-1-|-----------------|-5-5-5-5-5-5-5-5-|-5-5-5-5-5-5-5-5-|


  D5                A5                G5                E5     C5 B5
  PM|   PM|   PM    PM|   PM|   PM    PM|   PM|   PM    PM   PM
  E E E E E E E E   E E E E E E E E   E E E E E E E E   E Q  E Q  Q
|-----------------|-----------------|-----------------|--------------|
|-----------------|-----------------|-----------------|--------------|
|-----7-----7---7-|-----------------|-----------------|--------5--4--|
|-----7-----7---7-|-----7-----7---7-|-----5-----5---5-|---2----5--4--|
|-5-5-5-5-5-5-5-5-|-----7-----7---7-|-----5-----5---5-|---2----3--2--|
|-----------------|-5-5-5-5-5-5-5-5-|-3-3-3-3-3-3-3-3-|-0-0--0-------|


 Outro
  F5                E5                A5
  PM|   PM|   PM    PM|   PM|   PM    PM|   PM|   PM    PM|   PM|   PM
  E E E E E E E E   E E E E E E E E   E E E E E E E E   E E E E E E E E
|-----------------|-----------------|-----------------|-----------------|
|-----------------|-----------------|-----------------|-----------------|
|-----------------|-----------------|-----------------|-----------------|
|-----3-----3---3-|-----2-----2---2-|-----7-----7---7-|-----7-----7---7-|
|-----3-----3---3-|-----2-----2---2-|-----7-----7---7-|-----7-----7---7-|
|-1-1-1-1-1-1-1-1-|-0-0-0-0-0-0-0-0-|-5-5-5-5-5-5-5-5-|-5-5-5-5-5-5-5-5-|


  F5                G5                A5
  PM|   PM|   PM    PM|   PM|   PM    PM|   PM|   PM    PM|   PM|   PM
  E E E E E E E E   E E E E E E E E   E E E E E E E E   E E E E E E E E
|-----------------|-----------------|-----------------|-----------------|
|-----------------|-----------------|-----------------|-----------------|
|-----------------|-----------------|-----------------|-----------------|
|-----3-----3---3-|-----5-----5---5-|-----7-----7---7-|-----7-----7---7-|
|-----3-----3---3-|-----5-----5---5-|-----7-----7---7-|-----7-----7---7-|
|-1-1-1-1-1-1-1-1-|-3-3-3-3-3-3-3-3-|-5-5-5-5-5-5-5-5-|-5-5-5-5-5-5-5-5-|


  F5                D5                A5
  PM|   PM|   PM    PM|   PM|   PM    PM|   PM|   PM    PM|   PM|   PM
  E E E E E E E E   E E E E E E E E   E E E E E E E E   E E E E E E E E
|-----------------|-----------------|-----------------|-----------------|
|-----------------|-----------------|-----------------|-----------------|
|-----------------|-----7-----7---7-|-----------------|-----------------|
|-----3-----3---3-|-----7-----7---7-|-----7-----7---7-|-----7-----7---7-|
|-----3-----3---3-|-5-5-5-5-5-5-5-5-|-----7-----7---7-|-----7-----7---7-|
|-1-1-1-1-1-1-1-1-|-----------------|-5-5-5-5-5-5-5-5-|-5-5-5-5-5-5-5-5-|


  D5                A5                G5                E5     C5 B5
  PM|   PM|   PM    PM|   PM|   PM    PM|   PM|   PM    PM   PM
  E E E E E E E E   E E E E E E E E   E E E E E E E E   E Q  E Q  Q
|-----------------|-----------------|-----------------|--------------|
|-----------------|-----------------|-----------------|--------------|
|-----7-----7---7-|-----------------|-----------------|--------5--4--|
|-----7-----7---7-|-----7-----7---7-|-----5-----5---5-|---2----5--4--|
|-5-5-5-5-5-5-5-5-|-----7-----7---7-|-----5-----5---5-|---2----3--2--|
|-----------------|-5-5-5-5-5-5-5-5-|-3-3-3-3-3-3-3-3-|-0-0--0-------|


 Outro - Fade
  F5                E5                A5
  PM|   PM|   PM    PM|   PM|   PM    PM|   PM|   PM    PM|   PM|   PM
  E E E E E E E E   E E E E E E E E   E E E E E E E E   E E E E E E E E
|-----------------|-----------------|-----------------|-----------------|
|-----------------|-----------------|-----------------|-----------------|
|-----------------|-----------------|-----------------|-----------------|
|-----3-----3---3-|-----2-----2---2-|-----7-----7---7-|-----7-----7---7-|
|-----3-----3---3-|-----2-----2---2-|-----7-----7---7-|-----7-----7---7-|
|-1-1-1-1-1-1-1-1-|-0-0-0-0-0-0-0-0-|-5-5-5-5-5-5-5-5-|-5-5-5-5-5-5-5-5-|


  F5                G5                A5
  PM|   PM|   PM    PM|   PM|   PM    PM|   PM|   PM    PM|   PM|   PM
  E E E E E E E E   E E E E E E E E   E E E E E E E E   E E E E E E E E
|-----------------|-----------------|-----------------|-----------------|
|-----------------|-----------------|-----------------|-----------------|
|-----------------|-----------------|-----------------|-----------------|
|-----3-----3---3-|-----5-----5---5-|-----7-----7---7-|-----7-----7---7-|
|-----3-----3---3-|-----5-----5---5-|-----7-----7---7-|-----7-----7---7-|
|-1-1-1-1-1-1-1-1-|-3-3-3-3-3-3-3-3-|-5-5-5-5-5-5-5-5-|-5-5-5-5-5-5-5-5-|


  F5                D5                A5
  PM|   PM|   PM    PM|   PM|   PM    PM|   PM|   PM    PM|   PM|   PM
  E E E E E E E E   E E E E E E E E   E E E E E E E E   E E E E E E E E
|-----------------|-----------------|-----------------|-----------------|
|-----------------|-----------------|-----------------|-----------------|
|-----------------|-----7-----7---7-|-----------------|-----------------|
|-----3-----3---3-|-----7-----7---7-|-----7-----7---7-|-----7-----7---7-|
|-----3-----3---3-|-5-5-5-5-5-5-5-5-|-----7-----7---7-|-----7-----7---7-|
|-1-1-1-1-1-1-1-1-|-----------------|-5-5-5-5-5-5-5-5-|-5-5-5-5-5-5-5-5-|


  D5                A5                G5                E5     C5 B5
  PM|   PM|   PM    PM|   PM|   PM    PM|   PM|   PM    PM   PM
  E E E E E E E E   E E E E E E E E   E E E E E E E E   E Q  E Q  Q
|-----------------|-----------------|-----------------|--------------|
|-----------------|-----------------|-----------------|--------------|
|-----7-----7---7-|-----------------|-----------------|--------5--4--|
|-----7-----7---7-|-----7-----7---7-|-----5-----5---5-|---2----5--4--|
|-5-5-5-5-5-5-5-5-|-----7-----7---7-|-----5-----5---5-|---2----3--2--|
|-----------------|-5-5-5-5-5-5-5-5-|-3-3-3-3-3-3-3-3-|-0-0--0-------|


  F5                E5                A5
  PM|   PM|   PM    PM|   PM|   PM    PM|   PM|   PM    PM|   PM|   PM
  E E E E E E E E   E E E E E E E E   E E E E E E E E   E E E E E E E E
|-----------------|-----------------|-----------------|-----------------*|
|-----------------|-----------------|-----------------|-----------------*|
|-----------------|-----------------|-----------------|-----------------*|
|-----3-----3---3-|-----2-----2---2-|-----7-----7---7-|-----7-----7---7-*|
|-----3-----3---3-|-----2-----2---2-|-----7-----7---7-|-----7-----7---7-*|
|-1-1-1-1-1-1-1-1-|-0-0-0-0-0-0-0-0-|-5-5-5-5-5-5-5-5-|-5-5-5-5-5-5-5-5-*|



Duration Legend
---------------
W - whole; H - half; Q - quarter; E - 8th; S - 16th; T - 32nd; X - 64th; a - acciaccatura
+ - note tied to previous; . - note dotted; .. - note double dotted
Uncapitalized letters represent notes that are staccato (1/2 duration)
Irregular groupings are notated above the duration line
Duration letters will always appear directly above the note/fret number it represents the
duration for.  Duration letters with no fret number below them represent rests.  Multi-
bar rests are notated in the form Wxn, where n is the number of bars to rest for.  Low
melody durations appear below the staff

Tablature Legend
----------------
 h   - hammer-on
 p   - pull-off
 b   - bend
 pb  - pre-bend
 r   - bend release (if no number after the r, then release immediately)
 /\  - slide into or out of (from/to "nowhere")
 s   - legato slide
 S   - shift slide
 - natural harmonic
[n]  - artificial harmonic
n(n) - tapped harmonic
 ~   - vibrato
 tr  - trill
 T   - tap
 TP  - trem. picking
 PM  - palm muting
\n/  - tremolo bar dip; n = amount to dip
 \n  - tremolo bar down
 n/  - tremolo bar up
/n\  - tremolo bar inverted dip
 =   - hold bend; also acts as connecting device for hammers/pulls
 <> - volume swell (louder/softer)
 x   - on rhythm slash represents muted slash
 o   - on rhythm slash represents single note slash

Misc Legend
-----------
 |  - bar
||  - double bar
||o - repeat start
o|| - repeat end
*|  - double bar (ending)
 :  - bar (freetime)
 $  - Segno
 &  - Coda
Tempo markers -  = BPM(8/16=s8/s16), where s8 = swing 8ths, s16 = swing 16ths

comments
We did not receive enough feedback on this tab! Please rate:
print report bad tab
1 2 3 4 5
I want to post or [tab]
guest
You may want to rate the tab now too:
select rating
Please do not post tabs as comments. Select "correction" instead!