Oops, an error
Loading. Please wait.

End Of All Hope Bass Tab

version 1
version 1

Whole song

Interactive

4,235 views 6 this week
no commentswrite comment
1 2 3 4 5
please rate
add to favorites
launch autoscroll
font size
0
reset
guitar tuner
Autoscroll
slow
fast
+/-
esc
set tempo
stop
Help us to improve Ultimate-Guitar.com Take our survey!
×
Author
Difficulty
intermediate
Band: Nightwish
Album: century Child
Song: End Of All Hope
Tuning 5-string: B E A D G
Tabbed By: ClosedRoad
Intro Part I
G --------------|--------------|--------------|---------------|
D --------------|--------------|--------------|-----------1---|
A --------------|-----------55-|--------------|-3333-3333--1--|
E -3333-3333-11-|-3333-3333----|-1111-1111-11-|---------------|
B --------------|--------------|--------------|---------------|

Part II
G ----------------------------------------|
D ----------------------------------------|
A -------33--5(16x)-00-------33-5(16x)----|
E -0(16x)--------------0(16x)---------00--|
B ----------------------------------------|

Part III
G ----------------------------------------------------|
D ------------1111-1-1------------------1-1111--------| Listen for perfect
A ----------------------------------------------------| timing
E -3-----33333---------11--3333---33333---------1111--|
B ----------------------------------------------------|

Pre Verse
G -----------------------------|
D -----------------------------|
A -----------1111-5------------|
E -3333------------------------|
B ------3333--------3333-3333--|

Verse
G -------------------|-------------------|--------------------------------|
D -------------------|-------------------|--------------------------------|
A -------------------|----------------5--|------------------1--0---010----|
E -3333-3333-3333-11-|-3333-3333-3333--5-|-3333-3333-3333-11------3----1--|
B -------------------|-------------------|--------------------------------|

Chorus
G -----------------------------------------|
D -------------------------------------1---|
A ------------------55-----------3(16x)-1--|
E -3(16x)-11-3(16x)----1(16x)-11-----------|
B -----------------------------------------|

After Chorus
G -----------------------------|
D ----------1111-11------------|
A -----------------------1-----|
E -3---33333--------1111--0--33|
B -----------------------------|

Verse
G -------------------|---------------------|--------------------------------|
D -------------------|---------------------|--------------------------------|
A -------------------|----------------53---|------------------1--0---010----|
E -3333-3333-3333-11-|-3333-3333-3333---53-|-3333-3333-3333-11------3----1--|
B -------------------|---------------------|--------------------------------|

Chorus 1x
Intro Part II 1x

Bridge Part I
G -------------------------------------------------|
D -------------------------------------------------|
A -------------------------------------------------| 3x
E -0-000-0-000-0-000-0-0000-0-000-0-000-0-0-0-023--|

Part II
G ----------------------------------------|
D ----------------------------------------|
A -------------------------------------3--| 2x
E ---------------------------------5-1----|
B -3333-3333-3333-3333-3333-3333-3--------|

Bridge Part I 2x
Bridge Part II 2x

Guitar Solo
G -------------------------------------------------------|
D -------------------------------------------------------|
A -55555555---------33333333-00000000-11111111-33333333--|
E ---------33333333--------------------------------------|

Bass solo
G ----------------------|
D ----------------------|
A -235320---------------|
E -------3-0-0----------|

Chorus 1x

Bridge Part III
G ------------------|
D ------------------|
A ----35--0---35-7--|
E -0-------0--------|

Chorus 1 1/2 x

End
G --------------------------------|
D --------------------------------|
A -5(16x)-------------------------|
E --------1(16x)-3(16x)-33333333--|

That's it I think this is the way to play the song.
Have Fun
Greetings ClosedRoad
Suggest correction
What's this?
You can suggest a correction to this tab. Community and Mods will review your correction and vote to approve or reject it.
comments
We did not receive enough feedback on this tab! Please rate:
print report bad tab
1 2 3 4 5
guest
You may want to rate the tab now too:
select rating
Please do not post tabs as comments. Select "correction" instead!