Oops, an error
Loading. Please wait.

End Of All Hope Tab

version 1
version 1

Whole song

Interactive

21,977 views 21 this week
1 commentread comment
1 2 3 4 5
please rate
add to favorites
launch autoscroll
font size
0
reset
how to read this tab
guitar tuner
Autoscroll
slow
fast
+/-
esc
set tempo
stop
Help us to improve Ultimate-Guitar.com Take our survey!
×
Author
Difficulty
intermediate
Band: Nightwish
Song: End Of All Hope
Album: Century Child

Just copied from an other site, because there was none on this site.

. - palm mute / - slide up to
\ - slide down to ~ - vibrato
h - hammer on p - pull off
, - slight palm mute () - ghost note, sustained note
" - tremolo note <> - Trill

Suffixes for bend
f - full bend h - half bend
ph - pinched harmonic q - quarter bend
t - tap bend * - see comment
^ - Hold bend r - release bend
x - Stuccatto ~ - vibrato bend

Riff 1
--------------------------------------------------------------------------|
--------------------------------------------------------------------------|
--------------------------------------------------------------------------|
------------------------------------------7-7-------------------------5-5-|
-5-5-5-5--5-5-5-5--3-3--5-5-5-5--5-5-5-5--5-5--3-3-3-3--3-3-3-3--3-3--3-3-|
-3-3-3-3--3-3-3-3--1-1--3-3-3-3--3-3-3-3--5-5--1-1-1-1--1-1-1-1--1-1------|

-------------------|
-------------------|
-------------------|
-5-5--5-5-5-5--8---|
-3-3--3-3-3-3--6-8-|
-----------------6-|

Riff 2 (play twice)
--------------------------------------------------------------------------|
--------------------------------------------------------------------------|
--------------------------------------5--5--------------------------------|
--------------------------------------5--5--7-----------------------------|
-2------------------------------------3--3--5--5-5-5-5-5-5-5-5-5-5-5-5-5--|
-0--0-0-0-0-0-0-0-0-0-0-0-0-0-0-0-0-0-------5-----------------------------|
    . . . . . . . . . . . . . . . . .          . . . . . . . . . . . . .
-------------------|
-------------------|
-------------------|
---------7-7-------|
-5-5-5-5-7-7-------|
---------5-5-------|
 . . . .

Riff 3 (play twice)
--------------------------------------------------------------------------|
--------------------------------------------------------------------------|
--------------------------------------------------------------------------|
-------------------------------------------3------------------------------|
-5-----5---------0-1p0---5-----5-----1-0-1---1-0-5-----5---------0-1-0----|
-3-3-3-3-3-3-1-3-------1-3-3-3-3-3-3-------------3-3-3-3-3-3-1-3-------1--|
   . .   . .               . .   . .               . .   . .
-------------------|
-------------------|
-------------------|
-------------------|
-3-3-3-1-0-0-0---0-|
---------------3---|

Riff 4a
--------------------------------------------------------------------------|
--------------------------------------------------------------------------|
--------------------------------------------------------------------------|
-----------------------7-7-7-7------3-3-3-3------7------------------------|
-5-5-5-5--5-5-5-5------5-5-5-5------1-1-1-1------5------------------------|
-3-3-3-3--3-3-3-3--------------------------------5------------------------|

Riff 4b
-------------------------------------------------------------------------|
-------------------------------------------------------------------------|
-------------------------------------------------------------------------|
------------------------------------------------------------7-7----------|
-5-5-5-5--5-5-5-5--5-5-5-5--3-3--5-5-5-5--5-5-5-5--5-5-5-5--5-5--5-5-5-5-|
-3-3-3-3--3-3-3-3--3-3-3-3--1-1--3-3-3-3--3-3-3-3--3-3-3-3--5-5--3-3-3-3-|

------------------------|
------------------------|
------------------------|
------------------------|
-5-5-5-5--5-5-5-5--8--7-|
-3-3-3-3--3-3-3-3--6--5-|

Riff 5
-------------------------------------------------------------------------|
-------------------------------------------------------------------------|
-------------------------------------------------------------------------|
-------------------------------------------------------------------------|
-5-----------5-----------5-----------3-3-5-----------5-----------5-------|
-3-3-3-3-3-3-3-3-3-3-3-3-3-3-3-3-3-3-1-1-3-3-3-3-3-3-3-3-3-3-3-3-3-3-3-3-|
   . . . . .   . . . . .   . . . . .       . . . . .   . . . . .   . . .
--------------------------------------------------------------------------|
--------------------------------------------------------------------------|
--------------------------------------------------------------------------|
--------7-7-------------------------------------------5-----------5-------|
-----5--5-5--3-----------3-----------3-----------3-3--3-3-3-3-3-3-3-3-3-3-|
-3-3-3--5-5--1-1-1-1-1-1-1-1-1-1-1-1-1-1-1-1-1-1-1-1----------------------|
 . .           . . . . .   . . . . .   . . . . .        . . . . .   . . .
-----------------------|
-----------------------|
-----------------------|
-----5------------8----|
-3-3-3-3-3-3-3-3--6--8-|
---------------------6-|
 . .   . . . . .

Riff 3 x 1 w/variation
Riff 4b x 1

Riff 5 x 1
Riff 2 x 1

Riff 6 (play 3 times)
-------------------------------------------------------------------------|
-------------------------------------------------------------------------|
-------------------------------------------------------------------------|
-------------------------------------------------------------------------|
-2--2-2-2-2--2-2-2-2--2-2-2-2--2-2-2-2--2-2-2-2--2-2-2-2--2-2-2-2--2-4-5-|
-0--0-0-0-0--0-0-0-0--0-0-0-0--0-0-0-0--0-0-0-0--0-0-0-0--0-0-0-0--0-2-3-|
 .  . . . .  . . . .  . . . .  . . . .  . . . .  . . . .  . . . .  . . .

Riff 7
---------------------------------------------------------------------------|
---------------------------------------------------------------------------|
---------------------------------------------------------------------------|
-7-7-7-7--7-7-7-7--7-7-7-7--7-7-7-7--7-7-7-7--7-7-7-7--7-7-7-7--7--------5-|
-5-5-5-5--5-5-5-5--5-5-5-5--5-5-5-5--5-5-5-5--5-5-5-5--5-5-5-5--5--7--3--3-|
-5-5-5-5--5-5-5-5--5-5-5-5--5-5-5-5--5-5-5-5--5-5-5-5--5-5-5-5-----5--1----|
 . . . .  . . . .  . . . .  . . . .  . . . .  . . . .  . . . .

Riff 6 x 1
Riff 7 x 1

Solo
--------------------------------------15~--13-12-13~-----------------------|
-10---10----10----------8-10-11-10-8~-----------------17-18-20\13-15-17----|
----7----10----7-7-9-10-------------------------------17-19-21\14-16-17-14-|
---------------------------------------------------------------------------|
---------------------------------------------------------------------------|
---------------------------------------------------------------------------|

----------------------------------------------------|
----------------/18~--20\15~----------/15~--13~--15-|
-17-14-------------------14~--14~--12-/15~--14~--15-|
-------18-17-15---------------15~--14---------------|
----------------------------------------------------|
----------------------------------------------------|

Under solo
---------------------|
---------------------|
---------------------|
-7-----5---2---3---5-|
-5--5--3---0---1---3-|
----3----------------|

Riff 5 x 1

Riff 8
------------------------|
------------------------|
------------------------|
----5-7---2-----5-7--9--|
-2--3-5---0-2---3-5--7--|
-0----5-----0-----5-----|

Riff 5 x 1 ½

Finish
----------------------------|
----------------------------|
----------------------------|
-7--------------------------|
-5---3---5----5-5-5-5-5-5-5-|
-5---1---3----3-3-3-3-3-3-3-|
              . . . . . . .
Suggest correction
Give kudos to tab author, rate the tab!
1 2 3 4 5
comments
print report bad tab
1 comment total.
0 reply
plasticineguy 10 wrote on October 13 2013, 02:36 am

this is definitely not right -- you can hear that it's a low D, not a high D. either it's a whole step down, or in drop D.

guest
You may want to rate the tab now too:
select rating
Wanna post a correction for this tab? Suggest correction