Oops, an error
Loading. Please wait.

Eva Tab

version 1
version 1

Interactive

12,935 views 6 this week
3 commentsread comments
1 2 3 4 5
accurate
x 4
add to favorites
launch autoscroll
font size
0
reset
how to read this tab
guitar tuner
Autoscroll
slow
fast
+/-
esc
set tempo
stop
Help us to improve Ultimate-Guitar.com Take our survey!
×
Contributor
voilas j'ai reussi à trouver a l'oreille le solo du nouveau single de nighwish qui est 
le 24 mai qui se prénome EVA !!!

il y a surement des erreurs corriger les et faites les moi parvenir !! ;-)

c'est ma 1ere tabs donc les espace entre les notes ne correspondent pas forcement au temps !!!

voilas bonne gratte !! :-))))

e|-------------------------------------------------------------------------|
b|-14(15)--14(15)-14--12--10--12-------------------------------------------|
g|--------------------------------11---11--11--12--12--14--11--------------|
d|-------------------------------------------------------------14-12-12-14-|
a|-------------------------------------------------------------------------|
E|-------------------------------------------------------------------------|


e|-------------------------------------------------------------------------|
b|-------------------------------------------------------10--12------------|
g|--11—12-----12--11--9--9--11------------11----16-14-9-----------x-x--11--|
d|-----------------------------9~~~~------------------------------x-x------|
a--------------------------------------------------------------------------|
E|-------------------------------------------------------------------------|

e|--15--13-------------------------------------------------------------------|
b|----------10---------------------------------------------------------------|
g|---------------<11>~~~-------------------11-14-17----15---12--<12>~~~------|
d|-------------------------14--12---- 12-14----------------------------------|
a|---------------------------------------------------------------------------|
E|---------------------------------------------------------------------------|
comments
print report bad tab
3 comments total.
0 reply
fart666 11 wrote on June 8 2007, 04:51 pm

many mistakes for example - last line should looks like:
e|--14--12-------------------------------------------------------------------------|
b|----------10---------------------------------------------------------------------|
g|---------------~~~-------------------11H14-16----14---16P14-11--~~~------|
d|-------------------------14--12-----12H14----------------------------------------|
a|---------------------------------------------------------------------------------|
E|---------------------------------------------------------------------------------|

+1 reply
yakreig 100 wrote on August 2 2007, 05:35 am

the song is also tuned a whole step down

+1 reply
wolf1990 41 wrote on October 26 2007, 02:10 pm

tuning doesn't matter though because the notations will sound the same, as long as there isnt any open notes lol

I want to post or [tab]
guest
You may want to rate the tab now too:
select rating
Please do not post tabs as comments. Select "correction" instead!