Oops, an error
Loading. Please wait.

Ever Dream Tab

version 1
version 1

Live

Whole song

7,047 views 9 this week
2 commentsread comments
1 2 3 4 5
please rate
add to favorites
launch autoscroll
font size
0
reset
how to read this tab
guitar tuner
Autoscroll
slow
fast
+/-
esc
set tempo
stop
Help us to improve Ultimate-Guitar.com Take our survey!
×
Author
-------------------------------------------------------------------------------
                             Ever Dream - Nightwish
-------------------------------------------------------------------------------
Tabbed by: littleleo88
Email: b.gillam@gmail.com

Tuning: D standard (DGCFAD)
This is as it is performed on the End of an Era DVD, performed at Hartwell arena in Helsinki.
Please do not leave comments saying wrong tuning etc. The tuning for the live 
of this song is indeed DGCFAD.

Intro  1:07
e|--------------------------------------------------------------------------|
B|--------------------------------------------------------------------------|
G|--------------------------------------------------------------------------|
D|-----2-2-2-2--2-2-2-2--2-2-2-2-5-5-2-2-2-2--2-2-2-2--2-2-2-2-5-5----------|
A|-11\-0-0-0-0--0-0-0-0--0-0-0-0-5-5-0-0-0-0--0-0-0-0--0-0-0-0-5-5----------|
E|-------------------------------3-3---------------------------3-3----------|
       . . . .  . . . .  . . . .     . . . .  . . . .  . . . .

e|--------------------------------------------------------------------------|
B|--------------------------------------------------------------------------|
G|----------------------------------7------------5--------------------------|
D|-2-2-2-2--2-2-2-2--2-2-2-2-5-5----7------------5------------7-------------|
A|-0-0-0-0--0-0-0-0--0-0-0-0-5-5----5------------3------------7-------------|
E|---------------------------3-3------------------------------5-------------|
   . . . .  . . . .  . . . .

e|--------------------------------------------------------------------------|
B|--------------------------------------------------------------------------|
G|--------------------------------------------------------------------------|
D|-----2-2-2-2--2-2-2-2--2-2-2-2-5-5-2-2-2-2--2-2-2-2--2-2-2-2-5-5----------|
A|-----0-0-0-0--0-0-0-0--0-0-0-0-5-5-0-0-0-0--0-0-0-0--0-0-0-0-5-5----------|
E|-------------------------------3-3---------------------------3-3----------|
       . . . .  . . . .  . . . .     . . . .  . . . .  . . . .

e|--------------------------------------------------------------------------|
B|--------------------------------------------------------------------------|
G|----------------------------------7------------5--------------------------|
D|-2-2-2-2--2-2-2-2--2-2-2-2-5-5----7------------5------------7----\--------|
A|-0-0-0-0--0-0-0-0--0-0-0-0-5-5----5------------3------------7-----\-------|
E|---------------------------3-3------------------------------5------\/-----|
   . . . .  . . . .  . . . .

Verse 1:49
e|-------------------------------------------------------------------------------|
B|-------------------------------------------------------------------------------|
G|----------2--------------------------------------------------------------------|
D|-3-3-3-3--2-2-2-2-2--2-2-2-2--2-2-2-2--2-2-5-5-5-5--5-5-5-5--5-5-5-5--4-4-4-4--|
A|-3-3-3-3--0-0-0-0-0--0-0-0-0--0-0-0-0--0-0-3-3-3-3--3-3-3-3--3-3-3-3--2-2-2-2--|
E|-1-1-1-1-----------------------------------------------------------------------|
              . . . .  . . . .  . . . .  . . . . . .  . . . .  . . . .  . . . .

e|---------------------------------------------------------------------------|
B|---------------------------------------------------------------------------|
G|---------------------------------------------------------------------------|
D|-2-2-2-2--2-2-2-2--2-2-2-2--2-2-2-2--3-----------5-------------------------|
A|-0-0-0-0--0-0-0-0--0-0-0-0--0-0-0-0--3-----------5-------------------------|
E|-------------------------------------1-----------3------------3/21\3-------|
   . . . .  . . . .  .  . .   . . . .
Chorus  2:04
e|-----------------------------------------------------------------------------------------|
B|-----------------6-----5---3----------------------------------------6-----5---3----------|
G|-2-----2-----2-------------------2-----2-----2------2-----2-----2------------------------|
D|-2-----2-----2-------------------2-----2-----2---5--2-----2-----2-------------------3-5--|
A|-0-0-0-0-0-0-0-0---0-0---0---0-0-0-0-0-0-0-0-0-0-5--0-0-0-0-0-0-0-0---0-0---0---0-0-3-5--|
E|-------------------------------------------------3----------------------------------1-3--|
     . .   . .   .   . .   .   . .   . .   . .   .      . .   . .   .   . .   .   . .

e|-------------------------------------------------------------------------------|
B|-----------------6-----5---3---------------------------------------------------|
G|-2-----2-----2-------------------5--------------2------------------------------|
D|-2-----2-----2-------------------5------5-------2--------3-----5---------------|
A|-0-0-0-0-0-0-0-0---0-0---0---0-0-3------5-------0--------3-----5---------------|
E|----------------------------------------3----------------1-----3---------------|
     . .   . .   .   . .   .   . .

e|--------------------------------------------------------------------------|
B|--------------------------------------------------------------------------|
G|--------------------------------------------------------------------------|
D|-----2-2-2-2--2-2-2-2--2-2-2-2-5-5-2-2-2-2--2-2-2-2--2-2-2-2-5-5----------|
A|-----0-0-0-0--0-0-0-0--0-0-0-0-5-5-0-0-0-0--0-0-0-0--0-0-0-0-5-5----------|
E|-------------------------------3-3---------------------------3-3----------|
       . . . .  . . . .  . . . .     . . . .  . . . .  . . . .

e|--------------------------------------------------------------------------|
B|--------------------------------------------------------------------------|
G|----------------------------------7------------5--------------------------|
D|-2-2-2-2--2-2-2-2--2-2-2-2-5-5----7------------5--------------------------|
A|-0-0-0-0--0-0-0-0--0-0-0-0-5-5----5------------3--------------------------|
E|---------------------------3-3--------------------------------------------|
   . . . .  . . . .  . . . .

2:41
e|---------------------------------------------------------------------------|
B|---------------------------------------------------------------------------|
G|-2-------------------------------------------------------------------------|
D|-2-2-2-2-2--2-2-2-2--2-2-2-2--2-2-5-5-5-5--5-5-5-5--5-5-5-5--<7>-----------|
A|-0-0-0-0-0--0-0-0-0--0-0-0-0--0-0-3-3-3-3--3-3-3-3--3-3-3-3----------------|
E|---------------------------------------------------------------------------|
     . . . .  . . . .  . . . .  . . . . . .  . . . .  . . . .

e|---------------------------------------------------------------------------|
B|---------------------------------------------------------------------------|
G|-2-------------------------------------------------------------------------|
D|-2-2-2-2-2--2-2-2-2--2-2-2-2--2-2---3-----------5--------------------------|
A|-0-0-0-0-0--0-0-0-0--0-0-0-0--0-0---3-----------5--------------------------|
E|------------------------------------1-----------3--------------------------|
     . . . .  . . . .  . . . .  . .

Chorus  2:55
e|-----------------------------------------------------------------------------------------|
B|-----------------6-----5---3----------------------------------------6-----5---3----------|
G|-2-----2-----2-------------------2-----2-----2------2-----2-----2------------------------|
D|-2-----2-----2-------------------2-----2-----2---5--2-----2-----2-------------------3-5--|
A|-0-0-0-0-0-0-0-0---0-0---0---0-0-0-0-0-0-0-0-0-0-5--0-0-0-0-0-0-0-0---0-0---0---0-0-3-5--|
E|-------------------------------------------------3----------------------------------1-3--|
     . .   . .   .   . .   .   . .   . .   . .   .      . .   . .   .   . .   .   . .

e|-------------------------------------------------------------------------------|
B|-----------------6-----5---3---------------------------------------------------|
G|-2-----2-----2-------------------5--------------2------------------------------|
D|-2-----2-----2-------------------5------5-------2--------3-----5---------------|
A|-0-0-0-0-0-0-0-0---0-0---0---0-0-3------5-------0--------3-----5---------------|
E|----------------------------------------3----------------1-----3---------------|
     . .   . .   .   . .   .   . .

Interlude  3:21
e|---------------------------------------------------------------------------|
B|---------------------------------------------------------------------------|
G|------------------------2--------------------------------------------------|
D|-3----------------------2-------------3----------------5-------------------|
A|-3----------------------0-------------3----------------5-------------------|
E|-1------------------------------------1----------------3-------------------|

Solo   3:32
e|-------------------------------------------------------------------------|
B|-------------3--5/6-5--3-3--5-5~~~~------3-------------------------------|
G|--4--5--4--5--------------------------5-----5—4h5p4-----/9--7-----7--9---|
D|----------------------------------------------------5----------10--------|
A|-------------------------------------------------------------------------|
E|-------------------------------------------------------------------------|

e|-------------------------------------------------------------------------|
B|---------------------------------3--5--3--1----3---0--1-0h1p1------------|
G|-2---------------------------4-5------------0----0------------2-0--------|
D|-2--3~-2~-2-3-/5--3-2-3-------------------------------------------3------|
A|-0----------------------5------------------------------------------------|
E|-------------------------------------------------------------------------|

e|-----------------------------------------------/13-13-12-8-8/12-12\10-10/15-15\12-12/17-17-|
B|------5-7-8-8~~-/10-8-8--8--10--12--13-13\12-8---------------------------------------------|
G|-4-5-7-------------------------------------------------------------------------------------|
D|-------------------------------------------------------------------------------------------|
A|-------------------------------------------------------------------------------------------|
E|-------------------------------------------------------------------------------------------|

Outro
e|---------------------------------------------------------------------------|
B|---------------------------------------------------------------------------|
G|--5------------------------------------------------------------------------|
D|--5---------5----------7------------3-----------5--------------------------|
A|--3---------5----------7------------3-----------5--------------------------|
E|------------3----------5------------1-----------3--------------------------|

e|------------------------------------------------------------------------------------|
B|------------------------------------------------------------------------------------|
G|-5---------5---------5-----5---------5---------5-----5---------5---------5----------|
D|-5---------5---------5-----5---------5---------5-----5---------5---------5-----8----|
A|-3-3-3-3-3-3-3-3-3-3-3-3-3-3-3-3-3-3-3-3-3-3-3-3-3-3-3-3-3-3-3-3-3-3-3-3-3-3-3-8----|
E|-------------------------------------------------------------------------------6----|
     . . . .   . . . .   . .   . . . .   . . . .   . .   . . . .   . . . .   . .

e|----------------------------|
B|----------------------------|
G|-5---------5---------5------|
D|-5---------5---------5------|
A|-3-3-3-3-3-3-3-3-3-3-3-3-3--|
E|----------------------------|
     . . . .   . . . .   . .

e|-------------------------------------------------------------------------------------------|
B|-------------------------------------------------------------------------------------------|
G|-5---------5---------5-----------5---------5---------5-----5---------5---------5-----8-----|
D|-5---------5---------5-----3--8--5---------5---------5-----5---------5---------5-----8-8---|
A|-3-3-3-3-3-3-3-3-3-3-3-3-3-3--8--3-3-3-3-3-3-3-3-3-3-3-3-3-3-3-3-3-3-3-3-3-3-3-3-3-3-6-8---|
E|---------------------------1--6--------------------------------------------------------6---|
     . . . .   . . . .   . .         . . . .   . . . .   . .   . . . .   . . . .   . .

e|---------------------------------------------------------------------------|
B|---------------------------------------------------------------------------|
G|--5--------------------5---------5---------5-----5---------5---------5-----|
D|--5----6------8--------5---------5---------5-----5---------5---------5-----|
A|--3----6------8--------3-3-3-3-3-3-3-3-3-3-3-3-3-3-3-3-3-3-3-3-3-3-3-3-3-3-|
E|-------4------6------------------------------------------------------------|
                           . . . .   . . . .   . .   . . . .   . . . .   . .

e|----------------------------------------------------------------------------------------|
B|----------------------------------------------------------------------------------------|
G|-5---------5---------5--------5---------5---------5-----5---------5---------5-----------|
D|-5---------5---------5-----8--5---------5---------5-----5---------5---------5-----3--8--|
A|-3-3-3-3-3-3-3-3-3-3-3-3-3-8--3-3-3-3-3-3-3-3-3-3-3-3-3-3-3-3-3-3-3-3-3-3-3-3-3-3-3--8--|
E|---------------------------6------------------------------------------------------1--6--|
     . . . .   . . . .   . .      . . . .   . . . .   . .   . . . .   . . . .   . .

e|-----------------------------------------------------------------------------|
B|-----------------------------------------------------------------------------|
G|-5---------5---------5-----5---------5---------5-----8----5------------------|
D|-5---------5---------5-----5---------5---------5-----8-8--5----6----8--<6>~~~|
A|-3-3-3-3-3-3-3-3-3-3-3-3-3-3-3-3-3-3-3-3-3-3-3-3-3-3-6-8--3----6----8--------|
E|-------------------------------------------------------6-------4----6--------|
     . . . .   . . . .   . .   . . . .   . . . .   . .

| /  slide up
| \  slide down
| h  hammer-on
| p  pull-off
| ~  vibrato
| <5>  harmonic
| .  Mute note
| \    Whammy dive
   \/
===============================================================================
Suggest correction
Give kudos to tab author, rate the tab!
1 2 3 4 5
comments
print report bad tab
2 comments total.
-1 reply
emppu_v 10 wrote on July 8 2007, 04:10 am

Hi
First of all, your tabs are great.
The high hopes tab is amazing.
But in the solo on Ever dream you can actually
see emppu playing an harmonic on the 19th freth
at the end of the solo.

0 reply
wiseguy21690 10 wrote on May 8 2008, 03:37 pm

Actually in the video you can't see the last note or two. Plus it definitely sounds like that G (17th fret). Not to mention the song is in G minor so it makes sense to end the solo on a G instead of an A.

guest
You may want to rate the tab now too:
select rating
Please do not post tabs as comments. Select "correction" instead!