Oops, an error
Loading. Please wait.
We have an official Planet Hell tab made by UG professional guitarists. Check out the tab »
×
5,488 views 3 this week
no commentswrite comment
1 2 3 4 5
1 last vote to show rating
add to favorites
×
Save as Personal and add changes to this tab that will be seen only by you. Learn more ›
×
You can save this tab as Personal to edit and correct it or add notes. All changes will be seen only by you. Learn more »
launch autoscroll
font size
0
reset
guitar tuner
edit
Autoscroll
slow
fast
+/-
esc
set tempo
stop
Band: Nightwish
Song: Planet Hell
Album: Once
Tuning: Drop-D (D A D G)
Tabbed by: ClosedRoad

All trough the song listen for perfect timing. My timing isn't always right.

Intro first voices

Then

Intro/ Verse I
G --------------------------------------------|
D --------------------------------------------|
A -------------------------------------1---0--|
D -0-000-000-5-0-000-000-5-0-000-000-3---5----|


G ------------------------------------------|
D ------------------------------------------|
A -----------------------------------1---0--|
D -0-000-000-5-0-000-3/6-0-000-000-3---5----|

Verse II
G --------------------------------------------|
D --------------------------------------------|
A -------------------------------------4---3--|
D -3-333-333-1/3-333-333-1/3-333-333-6---5----|

Pre Chorus
G ---------------------------------------|
D ---------------------------------------|
A -1~--1~---------1..(32x)---------------|
D ---------3~--3~----------3..(32x)--1~--|

Verse I
verse II

Chorus
G ---------------------------------------------|
D ---------------------------------------------|
A ---------------------------------------------|
D -3-6---888898888696666669-8888988886696-664--|

G ----------------------------------------------|
D ----------------------------------------------|
A ----------------------------------------------|
D -3-333-333-1/3-333-333-1/3-333-333--6-6-6--5--|

G ---------------------------------------|
D ---------------------------------------|
A ---------------------------------------|
D -888898888696666669-8888988886696-664--|

G ------------------------------------------|
D ------------------------------------------|
A -----------------------4-4--4-------------|
D -3-333-333-1/3-333-333---------6-6--6--5--|

Bridge
G ------------------------------------------------|
D ------------------------------------------------|
A ------------------------------------------------|
D -1----1-1---1-1--1-1--3/1--1--1-1--1-1--1-1--6--|

G -----------------------------------------------|
D -----------------------------------------------|
A -1..(32x)---------------------1..(32x)---------| 2x
D ----------333-3-333--3..(24x)----------6~--1~--|

G ------------------------------------------------|
D ------------------------------------------------|
A --------3/4--3/4-----------------3/4-3/4-64343--|
D -3333-3-----------3333333333-333----------------|

G --------------------------------------------------|
D --------------------------------------------------|
A --------3/4--3/4-----------------3/4-3/4-642------|
D -3333-3-----------3333333333-333-------------651--|

Play Chorus

Play till end
G --------------------------------|
D --------------------------------|
A -111111111111111111111111111..--|
D --------------------------------|

That's it such a heavy song
have Fun
greetings ClosedRoad

            
            
Suggest correction
Creating personal tab
Creating personal tab
You can edit any tab online and save it as your Personal.

You can edit, replace or remove any tab part or add personal notes – all changes will be seen only by you.

Personal tabs can be accessed anytime from any device, even offline.
Learn more »
Give kudos to tab author, rate the tab!
1 2 3 4 5
comments
print report bad tab
guest
You may want to rate the tab now too:
select rating
Wanna post a correction for this tab? Suggest correction