Oops, an error
Loading. Please wait.
We have an official Planet Hell tab made by UG professional guitarists. Check out the tab »
×
508 views 1 this week
2 commentsread comments
1 2 3 4 5
3 more votes to show rating
add to favorites
×
Save as Personal and add changes to this tab that will be seen only by you. Learn more ›
×
You can save this tab as Personal to edit and correct it or add notes. All changes will be seen only by you. Learn more »
launch autoscroll
font size
0
reset
guitar tuner
edit
Autoscroll
slow
fast
+/-
esc
set tempo
stop
-------------------------------------------------------------------------------
			     Planet Hell[Live]  Nightwish.
-------------------------------------------------------------------------------

Tabbed By : Westfield29
e-mail: st-gilly@hotmail.com

Tuning: Drop C.

An attempt at tabbing Nightwishs live performance of Planet Hell on their End of an Era 
Its not perfect, but hopefully its some help. First tab so be nice. Feel free to mail me 
corrections. Thanks =]

Intro 00:59
F|---------------------------------------------------------------------------|
C|---------------------------------------------------------------------------|
G|----------------------------------------------3-0-2------------------------|
C|-2-222-222-22-0-2222-222-22-0-2222-222-22-0-5-------2-222-222-22-0---------|

F|---------------------------------------------------------------------------|
C|---------------------------------------------------------------------------|
G|------------------------------3-0-2----------------------------------------|X2
C|-2222-2025/8\-2222-222-22-0-5----------------------------------------------|

Tarja Verse 01:25
F|---------------------------------------------------------------------------|
C|---------------------------------------------------------------------------|
G|-------------------------------------------6-------------------------------|X2
C|-5555-55-5-5-35555-55-5-5-35555-55-5-5-3-8---8-3-------------------------- |

Bridge 1 01:38 *there are fills here that are too hard to accurately tab.
F|---------------------------------------------------------------------------|
C|---------------------------------------------------------------------------|
G|-3(x32 )53--------3(x32)*--------------------------------------------------|
C|-----------5(x32)*--------5(x32)-3~-3/15\----------------------------------|

Marco Verse 02:04
F|---------------------------------------------------------------------------|
C|---------------------------------------------------------------------------|
G|----------------------------------------------3-0-2------------------------|
C|-2-222-222-22-0-2222-222-22-0-2222-222-22-0-5-------2-222-222-22-0---------|

F|---------------------------------------------------------------------------|
C|---------------------------------------------------------------------------|
G|------------------------------3-0-2----------------------------------------|X1
C|-2222-2025~8\-2222-222-22-0-5----------------------------------------------|

Tarja Verse 02:18
F|---------------------------------------------------------------------------|
C|---------------------------------------------------------------------------|
G|-------------------------------------------6-------------------------------|X2
C|-5555-55-5-5-35555-55-5-5-35555-55-5-5-3-8---8-3-------------------------- |

Chorus 02:32
F|---------------------------------------------------------------------------|
C|---------------------------------------------------------------------------|
G|----3343334333113344334333114433-------------------------------------------|
C|-58-----------------------------8866-5555-555-553-5555-555-553-------------|

F|---------------------------------------------------------------------------|
C|----------------8----------------------------------------------------------|
G|----------------------3343334333113344334333114433-------------------------|
C|-5555-555-553-8---87\-----------------------------8866-5555-555-553--------|

F|---------------------------------------------------------------------------|
C|---------------------------------------------------------------------------|
G|---------------------------------------------------------------------------|
C|-5555-555-553-5555-555-553-33-3-3/88-8-8\5---------------------------------|

Bridge 2 03:00
F|---------------------------------------------------------------------------|
C|---------------------------------------------------------------------------|
G|------------10\------------------------------------------------------------|
C|-5-55-55-55-------5-55-55-55-8~--------------------------------------------|

Tuomas Solo 03:12
G|---------------------------------------------------------------------------|
D|---------------------------------------------------------------------------|
A|-3(x32)------------------------3(x32)--------------------------------------|X2
E|--------5555-55-5555-55-5(x16)--------8(x16)-3(x8)/15(x8)\-----------------|

Guitar Solo 03:39
F|---------------------------------------------------------------------------|
C|---------------------------------------------------------------------------|
G|----------5656-----------------------565686565-----------5656--------------|
C|-55555-55------555-5-5555-555~-555-5----------8-55555-55-------------------|

F|---------------------------------------------------------------------------|
C|---------------------------------------------------------------------------|
G|-----------------------5656865---------------------------------------------|
C|-555-5-5555-555~-555-5--------873------------------------------------------|

Chorus 03:53
F|---------------------------------------------------------------------------|
C|---------------------------------------------------------------------------|
G|-3343334333113344334333114433----------------------------------------------|
C|------------------------------8866-5555-555-553-5555-555-553---------------|

F|---------------------------------------------------------------------------|
C|----------------8----------------------------------------------------------|
G|----------------------3343334333113344334333114433-------------------------|
C|-5555-555-553-8---87\-----------------------------8866-5555-555-553--------|

F|-----------------------------------------------------------------------------|
C|-----------------------------------------------------------------------------|
G|-----------------------------------------------------------------------------|
C|-5555-555-553-5555-555-553-33-3-3/88-8-8\------------------------------------|

Outro 04:19 (Not sure about this, just something I play that fits nicely.)
F|-------------------------12------------------------------------------------|
C|-----10--12--13--12--10----131210------------------------------------------|
G|-1010--10--10--10--10--10--------------------------------------------------|X4
C|---------------------------------------------------------------------------|

| /  slide up
| \  slide down
| h  hammer-on
| p  pull-off
| ~  vibrato
| +  harmonic
| x  Mute note
============================================================

            
            
Suggest correction
Creating personal tab
Creating personal tab
You can edit any tab online and save it as your Personal.

You can edit, replace or remove any tab part or add personal notes – all changes will be seen only by you.

Personal tabs can be accessed anytime from any device, even offline.
Learn more »
Give kudos to tab author, rate the tab!
1 2 3 4 5
comments
print report bad tab
2 comments total.
0 reply
Goti 10 Dec 02, 2010 10:03 AM

Emppu from Nightwish uses only standard tuning (EADGHE) and standard D tuning (DGCFAD) but no drop tunings

0 reply
Westfield29 52 Dec 12, 2010 09:08 AM

This is true. Marco does however. I'm pretty sure that he is playing in drop C on the End of an era DVD. He might also be playing in drop C during Nemo but I'm not really sure. Thanks for the comment btw :)

guest
You may want to rate the tab now too:
select rating
Wanna post a correction for this tab? Suggest correction