Oops, an error
Loading. Please wait.
We have an official Sleeping Sun tab made by UG professional guitarists. Check out the tab »
×
13,929 views 3 this week
2 commentsread comments
1 2 3 4 5
x 14
add to favorites
guitar tuner
Autoscroll
slow
fast
+/-
esc
set tempo
stop
"Sleeping Sun"
demo version
Play now

or get full version for Free

×
Get full version now!
Learn and play this song
in Tab Pro
Try for free

or get $10 off Welcome Bonus

Get welcome bonus
Get access to Tab Pro version of “Sleeping Sun”!
Tab Pro is a premium guitar tab service, available on PC, Mac, iOS and Android
TRY FOR FREE
Your download will start in 7 seconds
×
Like this song? We have more! Follow us on Facebook for daily tips, lessons and other guitar-related content.
To download “Sleeping Sun” Guitar Pro tab click button below
Please note that you must have Guitar Pro software installed on your
computer in order to view this file.
Suggest correction
comments
report bad tab
2 comments total.
0 reply
Glufius 209 May 25, 2010 01:48 PM

I'm pretty sure the 6th note in bar 9 is an octave higher (for keyboards), as well as the rest in the same pattern.
For strings you might aswell used String Ensemble 1.
It kinda sounds like a sad, sad funeral when you use S.E.2.
The Guitar solo could've used some more Echo effects, aswell as the harmony in some parts.
Part from that, it's an exelent tab.
5 stars for an extremily well done job!

+1 reply
dragonslayer609 121 May 15, 2013 06:26 AM

the solo is perfect and easier to play on this way
Nigthwish - Sleeping Sun "Solo"

e------------------------------------------------------------
b----------13/8------------15/10---------------13------------g------------------------------------------------------------
d------------------------------------------------------------
a------------------------------------------------------------
e------------------------------------------------------------

e------------------------------------------------------------
b-------------------------------15--13-----------------------
g------7---9---10-10---12--14-----------14-------------------
d------------------------------------------------------------
a------------------------------------------------------------
e------------------------------------------------------------

e-------------------------------------13-12-10----10-12-10---
b-----11-10--8--------13-11--10----------------13------------
g------------------------------------------------------------
d------------------------------------------------------------
a------------------------------------------------------------
e------------------------------------------------------------

e------------------------------------------------------------
b------------------------------------------------------------
g-------------/7--------/9-----------/10--10-----------------
d------------------------------------------------------------
a------------------------------------------------------------
e------------------------------------------------------------

guest
You may want to rate the tab now too:
select rating