Oops, an error
Loading. Please wait.

Slow Love Slow Tab

version 1
version 1

Whole song

Interactive

269 views 1 this week
no commentswrite comment
1 2 3 4 5
3 more votes to show rating
add to favorites
launch autoscroll
font size
0
reset
how to read this tab
guitar tuner
Autoscroll
slow
fast
+/-
esc
set tempo
stop
Help us to improve Ultimate-Guitar.com Take our survey!
×
Author
Difficulty
intermediate
For the solo I think I wrote 80% correct...the solo has a fast part and I couldn't track 
the notes,so I create something that sounds almost like the original(I'm talking about 
Stave 6 and 7)...Hope you enjoy my tab xD and I'm opinions about this tab...even criticism xD
One more word before you start....you must listen the song so you know when you must 
play every Stave...there are some pauses.


(/) Slide Up  (\) Slide Down  (h) Hammer On  (p) Pull Off  (b) Bend (r) Release (v) Vibrato

Stave 1:

E|------------------------------------------------------|
B|----------------------------------------7-------------|
G|-----------------4-6-7b8--7-7-7-7b8-------7-6b7r6---7-|
D|-4---6-------4-6--------------------------------------|
A|------------------------------------------------------|
E|------------------------------------------------------|

Stave 2:

E|---------------------------|
B|---------------------------|
G|---7-6-4-------4b5r4---6---|
D|-6-------6-4-------------6-|
A|-------------6-------------|
E|---------------------------|

Stave 3:

E|-------------------------|
B|-9/12-12-12-12-12-14-----|
G|---------------------13v-|
D|-------------------------|
A|-------------------------|
E|-------------------------|

Stave 4:

E|----------------10-11----14-14-11-10-14-11-10-14-11-10-|
B|-12-------12-14----------------------------------------|
G|----13-11----------------------------------------------|
D|-------------------------------------------------------|
A|-------------------------------------------------------|
E|-------------------------------------------------------|

Stave 5:

E|-------10-14-11-10--------------|
B|-12-14-------------12-14-12-----|
G|----------------------------13v-|
D|--------------------------------|
A|--------------------------------|
E|--------------------------------|

Stave 6:

E|----------------------------------7-----------9---|
B|---7-----9-----7-----11-----7-----------7---------|
G|-8---8-8---8-8---8-8----8-8---8-8---8-8---8-8-----|
D|--------------------------------------------------|
A|--------------------------------------------------|
E|--------------------------------------------------|

Stave 7:

E|-9-7-6-7-6---6--------------------------------------|
B|-----------9---9-7-9-7-6-7-6-4-6-4------------------|
G|-----------------------------------6-4--------------|
D|---------------------------------------6-4----------|
A|-------------------------------------------6-4------|
E|-----------------------------------------------7-4v-|

Stave 8:

E|--------------------------------------------------------------|
B|--------------------------------------------------------------|
G|-4h6------------------------------------------------------4-6-|
D|-----6-6-6-6/9-9-9/11-11-11/13-13-13v----13---13/11-11-13-----|
A|--------------------------------------------------------------|
E|--------------------------------------------------------------|

Then you play this 2 powerchords: C and G#
You can listen the song so you know how to strum and when you must play this 2 powerchords
Suggest correction
Give kudos to tab author, rate the tab!
1 2 3 4 5
comments
print report bad tab
guest
You may want to rate the tab now too:
select rating
Wanna post a correction for this tab? Suggest correction