Oops, an error
Loading. Please wait.
We have Chord Pro version of The Islander.
It's the closest thing you can get to the original song and it has interactive parts. Check out the tab »
×
38,347 views 30 this week
1 commentread comment
1 2 3 4 5
x 10
add to favorites
launch autoscroll
font size
0
reset
how to read this tab
guitar tuner
Autoscroll
slow
fast
+/-
esc
set tempo
stop
Author
Difficulty
novice
this is my first time ever tabbing something...i know it says intros or solos aren't 
welcome here, but i got the chords off of this site and didn't want to repost them.

e------------------------------------------------------------|
b---0--2--3--2-----------------------------------------------|
g---------------4--2--4--------------------------------------|
d------------------------4--0--2--0-----0--------------------|
a------------------------------------2-----4--0--2-----------|
e------------------------------------------------------------|

anyway...i think it's pretty good, but there's definitely some beginning parts missing. 
it in any way you think necessary!
Suggest correction
comments
print report bad tab
1 comment total.
0 reply
scroungemonkeys 10 Feb 14, 2008 09:19 AM


try it with adding in the two hammer/pull combos they do
----------------
--0--2--3--2h3p2
----------------
----------------
----------------
----------------
and
----------------
----------------
----------------
----------------
--0--2--0h2p0---
----------------
----------------

guest
You may want to rate the tab now too:
select rating
Wanna post a correction for this tab? Suggest correction