Oops, an error
Loading. Please wait.

The Kinslayer Bass Tab

version 2
version 2

Whole song

  • Greater accuracy in the notes and rhythm. Better division of bars and sections.

Interactive

37 views 1 this week
no commentswrite comment
1 2 3 4 5
3 more votes to show rating
add to favorites
launch autoscroll
font size
0
reset
guitar tuner
Autoscroll
slow
fast
+/-
esc
set tempo
stop
Help us to improve Ultimate-Guitar.com Take our survey!
×
Author
Difficulty
intermediate
About this tab version
Greater accuracy in the notes and rhythm. Better division of bars and sections. Was this info helpful? Yes No
 Song: The Kinslayer
 Band: Nightwish
 Album: Wishmaster (with some thinks of live versions)
 Bassist: Sami Vanska
 Composer: T. Holopainen
 Tabbed by: FLBatista
 Tunning: Standard Tuning


INTRO:

G|-------------------------------------------------------|
D|-------------------------------------------------------|
A|----------0----2---5-------------0----2---5------------|
E|-0-0--------------------0-0--------------------3--2--2-|


G|-------------------------------------------------------|
D|-------------------------------------------------------|
A|----------0----2---5-------------0----2---5-------5--5-|
E|-0-0--------------------0-0--------------------3-------|


MAIN RIFF:

G|---------------------------------|--------------------------------|
D|---------------------------------|--------------------------------|
A|---------------------------------|----------------------------5-5-|
E|-0-0-0-0-0-0-0-0-0-0-0-0-0-0-0-0-|-0-0-0-0-0-0-0-0-5--5-5-3-3-----|

G|---------------------------------|-------------------------------|
D|---------------------------------|-------------------------------|
A|-----------------------------5---|-5h7-7---------------------5-5-|
E|-0-0-0-0-0-0-0-0-0-0-0-0-0/7---7-|-------0--0-0-0-5--5-5-3-3-----|

G|---------------------------------|--------------------------------|
D|---------------------------------|--------------------------------|
A|-4-4-4-4-4-4-4-4-4-4-4-4-4-4-4---|-4-4-4-4-4-4-4-4------------2-2-|
E|-------------------------------4-|-----------------5--5-5-0-0-----|

G|---------------------------------|--------------------------------|
D|---------------------------------|--------------------------------|
A|-4-4-4-4-4-4-4-4-4-4-4-4-4-4-4---|-4-4-4-4-4-4-4-4------------2-2-|
E|-------------------------------4-|-----------------5--5-5-0-0-----|


VERSE (For whom the ...) (x2):

G|-------------------------------------------------|
D|-------------------------------------------------|
A|-4-4---4-4---4-4---4-4---4-4---4-4---4-4---------|
E|-------------------------------------------4--4--|

G|-------------------------------------------------|
D|-------------------------------------------------|
A|-4-4---4-4---4-4---4-4---4-4---4-4---4--4--------|
E|-------------------------------------------3--3--|

G|------------------------------|----------------------------|
D|------------------------------|----------------------------|
A|------------------------------|-----------------------2--2-|
E|-2-2--0h2-2--0h2-2--0h2-2-0-0-|--2-2--0h2-2--2-0--0-0------|

G|------------------------------|--------------------------------|
D|------------------------------|--------------------------------|
A|------------------------------|--------------------7-7-8-7-6-5-|
E|-2-2--0h2-2--0h2-2--0h2-2-0-0-|--2-2--0h2-2--0h2-2-------------|


MAIN RIFF 2:

G|---------------------------------|--------------------------------|x2
D|---------------------------------|--------------------------------|
A|-4-4-4-4-4-4-4-4-4-4-4-4-4-4-4---|-4-4-4-4-4-4-4-4------------2-2-|
E|-------------------------------4-|-----------------5--5-5-0-0-----|


RIFF 1:

G|---------------------------------------------|------------------------------------------|
D|---------------------------------------------|------------------------------------------|
A|-4--4----4--4----4--4----4--4----4--4----4-4-|-4---4-4-4----4--4----4--4--4---5--5--5---|
E|---------------------------------------------|------------------------------------------|

G|---------------------------------|---------------------------------|
D|---------------------------------|---------------------------------|
A|---------------------------------|---------------------------------|
E|-0-0---0-0---0-0---0-0---0-0-2-0-|-3-3---3-3---3-3---5-5---5-5---5-|

G|---------------------------------|------------------------------------------|
D|---------------------------------|------------------------------------------|
A|---------------------------------|-5--5----5-5-5---5--5----3----3----3----3-|
E|-0-0-0-0-0-0-0-0-0-0-0-0-0-0-0-0-|------------------------------------------|

G|---------------------------------|---------------------------------|
D|---------------------------------|---------------------------------|
A|---------------------------------|---------------------------------|
E|-0-0---0-0---0-0---0-0---0-0-2-0-|-3-3---3-3---3-3---5---5---5---5-|

G|---------------------------------|------------------------------------------|
D|---------------------------------|------------------------------------------|
A|---------------------------------|-5--5----5-5-5---5--5----2----2----2----2-|
E|-0-0-0-0-0-0-0-0-0-0-0-0-0-0-0-0-|------------------------------------------|


RIFF 2:

G|-------------------------------------------------------------------|
D|-------------------------------------------------------------------|
A|----------5--5---------------5----------5--5----------------6--6-6-|
E|-0--------------0--------5-5---0--------------0------5--5-5--------|


RIFF 3:

G|-------------------------------|---------------------------------|
D|-------------------------------|---------------------------------|
A|-------------------------5--5--|-----------------------------5-5-|
E|-0-0-0-0-0-0-0-0-0-0-0-0-------|-0-0-0-0-0-0-0-0-0-0-0-0-5-5-----|

G|-------------------------------|-------------------------------|
D|-------------------------------|-------------------------------|
A|-------------------------5--5--|------------------------6--6-6-|
E|-0-0-0-0-0-0-0-0-0-0-0-0-------|-0-0-0-0-0-0-0-0-5--5-5--------|


VERSE 2 (Facing this unbearable...) (x2):

G|---------------------------------|--------------------------------|
D|---------------------------------|--------------------------------|
A|-4-4-4-4-4-4-4-4-4-4-4-4-4-4-4---|-4-4-4-4-4-4-4-4------------2-2-|
E|-------------------------------4-|-----------------5--5-5-0-0-----|

G|----------------------------------------------------|
D|----------------------------------------------------|
A|----------------------------------------------------|
E|-4-4-4-4-4----4-4-4-4-4--4----4-4-4----4-4-4-4-4--4-|

G|------------------------------------------------|
D|------------------------------------------------|
A|------------------------------------------------|
E|-4-4-4----4-4-4-4-4--4----4-4-4----4-4-4-4-4----|


RIFF 3:

G|-------------------------------|---------------------------------|
D|-------------------------------|---------------------------------|
A|-------------------------5--5--|-----------------------------5-5-|
E|-0-0-0-0-0-0-0-0-0-0-0-0-------|-0-0-0-0-0-0-0-0-0-0-0-0-5-5-----|

G|-------------------------------|-------------------------------|
D|-------------------------------|-------------------------------|
A|-------------------------5--5--|------------------------6--6-6-|
E|-0-0-0-0-0-0-0-0-0-0-0-0-------|-0-0-0-0-0-0-0-0-5--5-5--------|


VERSE 2 (Father help me...):

G|---------------------------------|--------------------------------|
D|---------------------------------|--------------------------------|
A|-4-4-4-4-4-4-4-4-4-4-4-4-4-4-4---|-4-4-4-4-4-4-4-4------------2-2-|
E|-------------------------------4-|-----------------5--5-5-0-0-----|

G|----------------------------------------------------|
D|----------------------------------------------------|
A|----------------------------------------------------|
E|-4-4-4-4-4----4-4-4-4-4--4----4-4-4----4-4-4-4-4--4-|

G|------------------------------------------------|
D|------------------------------------------------|
A|------------------------------------------------|
E|-4-4-4----4-4-4-4-4--4----4-4-4----4-4-4-4-4----|


RIFF 4 (Not a hero unless...):

G|-----------------------------|----------------------------|
D|-----------------------------|----------------------------|
A|-4-4--4-4--4-4--4-4--4-4-5-5-|----------------------------|
E|-----------------------------|-0-0--0-0--0-0--2-2--2-2--2-|

G|----------------------------|------------------------------|
D|----------------------------|------------------------------|
A|-4-4--4-4--4-4--4-4--4-4--4-|-2-2--2-2--2-2--0---0---0---0-|
E|----------------------------|------------------------------|

G|-----------------------------|------------------------------|
D|-----------------------------|------------------------------|
A|-4-4--4-4--4-4--4-4--4-4-5-5-|------------------------------|
E|-----------------------------|-0-0--0-0--0-0--2---2---2---2-|

G|---------------------------------------------|---------------------------|
D|---------------------------------------------|---------------------------|
A|-4--4----4--4----4--4----4--4----4--4----4-4-|-2-2--2-2--2-2-------------|
E|---------------------------------------------|----------------4--4--4--4-|


VERSE 3 (Cursing, god, why?...):

G|-----------------------------------------------------|
D|-----------------------------------------------------|
A|-4-4-4-4-4----4-4-4-4-4----4-4-4-4-4----4-4-4-4-4----|
E|-----------------------------------------------------|

G|--------------------------------------------------|
D|--------------------------------------------------|
A|-4-4-4-4-4----4-4-4-4-4----4-4-4-4-4--------------|
E|----------------------------------------4----4----|

G|-----------------------------------------------------|
D|-----------------------------------------------------|
A|-4-4-4-4-4----4-4-4-4-4----4-4-4-4-4----4-4-4-4-4----|
E|-----------------------------------------------------|

G|-----------------------------------------------|
D|-----------------------------------------------|
A|-4-4-4-4-4----4-4-4-4-4----4----4--------------|
E|-------------------------------------3----3----|

G|---------------------------------------------------------|
D|---------------------------------------------------------|
A|---------------------------------------------------------|
E|-2--2-2-2--2-2-2--2-2-2--2-2-2--2-2-2--2-2-2--2-2-2--2-2-|

G|-------------------------------------------------|
D|-------------------------------------------------|
A|---------------------------------------2----2----|
E|-2--2-2-2--2-2-2--2-2-2--2-2-0----0--------------|

G|---------------------------------------------------------|
D|---------------------------------------------------------|
A|---------------------------------------------------------|
E|-2--2-2-2--2-2-2--2-2-2--2-2-2--2-2-2--2-2-2--2-2-2--2-2-|

G|--------------------------------------------------|
D|--------------------------------------------------|
A|------------------------------------------8-7-6-5-|
E|-2--2-2-2--2-2-2--2-2-2--2-2-2--2-2-2--2----------|



CAPTIONS:


 / : Slide Up
 h : Hammer On
Suggest correction
Give kudos to tab author, rate the tab!
1 2 3 4 5
comments
print report bad tab
guest
You may want to rate the tab now too:
select rating
Wanna post a correction for this tab? Suggest correction