Oops, an error
Loading. Please wait.

The Kinslayer Tab

version 3
version 3

Whole song

Interactive

10,552 views 6 this week
2 commentsread comments
1 2 3 4 5
x 4
add to favorites
launch autoscroll
font size
0
reset
how to read this tab
guitar tuner
Autoscroll
slow
fast
+/-
esc
set tempo
stop
Help us to improve Ultimate-Guitar.com Take our survey!
×
Author
||||||||||||||||||||||||||||||||||||||||||||||||||||||||||||||||||||||||||||||||||
Hey guys, I've seen lots of wrong tabs written for this song, and I'll try to write it 
:-). The tuning is standard E (I'm note sure, it could be Eb, whatever). This is my first 
ever by the way, and I've been playin guitar for about 8 months.


/ - slide
/h - hammer on


||||||||||||||||||||||||||||||||||||||||||||||||||||||||||||||||||||||||
So here we start:

Intro:


e|--------------------------------------------------------------|
B|--------------------------------------------------------------|
G|----------------2-------------------------2-------------------|
D|-----2-2--------2-----4-7-----------2-2---2--4-7--------------|
A|-----2-2--------0-----2-5-----------2-2---0--2-5-----7--5-5-5-|
E|-----0-0----------------------------0-0--------------5--3-3-3-| (x2)

Make sure You played it twice :-P heh

_________________________________________________________________

Chorus:

[Tip: this part is preety fast, especially the B note on E string (that's 7th fret on E 
so You need to pick those notes very rapidly. If You're not fast enough You don't have 
play the 7th fret on E string, the melody is A and D strings (and 10th fret on E once :P) ]


Keep Your bar (index finger) on 7th fret (in first part) and on 4th fret
(second part) all the 3 strings [E A D] :) It's easier to play then.

In second part it is 4th fret


1st part:


e|---------------------------------------------------------------|
B|---------------------------------------------------------------|
G|---------------------------------------------------------------|
D|---------------------------------------------------------------|
A|-----7----------7--------------10-------9------------7-----9---|
E|-------7-7--------7-7-------------7-------7---10-7-----7-----7-|

e|------------------------------------------------------------------|
B|------------------------------------------------------------------|
G|------------------------------------------------------------------|
D|------------------------------9-7---------------------------------|
A|-----10-----------10----9--------------10--9-10--9--7-------------|
E|--------7-7----------7--------------------------------------------| (x2)

__________________________________________________________________

2nd part:

e|---------------------------------------------------------------|
B|---------------------------------------------------------------|
G|---------------------------------------------------------------|
D|---------------------------------------------------------------|
A|-----4----------4--------------7-------6------------4------6---|
E|-------4-4--------4-4------------4-------4----7-4-----4------4-|

e|---------------------------------------------------------------|
B|---------------------------------------------------------------|
G|---------------------------------------------------------------|
D|------------------------------6-4------------------------------|
A|-----7-----------7---6----------------7--6--7--6--4------------|
E|-------4-4---------4-------------------------------------------|(x2)

__________________________________________________________________

e|-------------------------------------------------------------|
B|-------------------------------------------------------------|
G|-------------------------------------------------------------|
D|-------------------------------------------------------------|
A|-----4----------4----------4--------------7--6--4/3/4--------|
E|-------5-4-5------5-4-5------5-4-5---------------------------|

e|-------------------------------------------------------------|
B|-------------------------------------------------------------|
G|-------------------------------------------------------------|
D|-------------------------------------------------------------|
A|-----4----------4----------4------------------------3/4------|
E|-------5-4-5------5-4-5------5-4-5-----------3-4-5-----------|

e|-------------------------------------------------------------|
B|-------------------------------------------------------------|
G|-------------------------------------------------------------|
D|-------------------------------------------------------------|
A|-----4----------4----------4--------------7--6--4/3/4--------|
E|-------5-4-5------5-4-5------5-4-5---------------------------|

e|-------------------------------------------------------------|
B|-------------------------------------------------------------|
G|-------------------------------------------------------------|
D|-------------------------------------------------------------|
A|-----4----------4---------------------3-4-5---2/3--4---------|
E|-------5-4-5------5-4-5-------3-4-5--------------------------|

_______________________________________________________________


e|-------------------------------------------------------------|
B|-------------------------------------------------------------|
G|-------------------------------------------------------------|
D|-----4----------4---------4-------------7--6---4/3/4---------|
A|-------5-4-5------5-4-5-----5-4-5----------------------------|
E|-------------------------------------------------------------|

e|-------------------------------------------------------------|
B|-------------------------------------------------------------|
G|-------------------------------------------------------------|
D|-----4----------4---------4----------------------3/4---------|
A|-------5-4-5------5-4-5-----5-4-5--------3-4-5---------------|
E|-------------------------------------------------------------|


e|-------------------------------------------------------------|
B|-------------------------------------------------------------|
G|-------------------------------------------------------------|
D|-----4----------4---------4-------------7--6---4/3/4---------|
A|-------5-4-5------5-4-5-----5-4-5----------------------------|
E|-------------------------------------------------------------|


e|-------------------------------------------------------------|
B|-------------------------------------------------------------|
G|-------------------------------------------------------------|
D|-----4----------4---------4--------------2-1-----------------|
A|-------5-4-5------5-4-5-----5-4-5--------------3-2-----------|
E|-------------------------------------------------------------|

________________________________________________________________

e|------------------------------------------------------------|
B|------------------------------------------------------------|
G|-----666---666---666---666---666---666---666----------------|
D|-----666---666---666---666---666---666---666----666---------|
A|-----444---444---444---444---444---444---444----666---------|
E|------------------------------------------------444---------|


e|------------------------------------------------------------|
B|------------------------------------------------------------|
G|-----666---666---666---666---666---666---666----------------|
D|-----666---666---666---666---666---666---666----555---------|
A|-----444---444---444---444---444---444---444----555---------|
E|------------------------------------------------333---------|

e|------------------------------------------------------------|
B|------------------------------------------------------------|
G|------------------------------------------------------------|
D|-----444---444---444---444---444---444------2--2------------|
A|-----444---444---444---444---444---444------2--2------------|
E|-----222---222---222---222---222---222------0--0------------|


e|------------------------------------------------------------|
B|------------------------------------------------------------|
G|------------------------------------------------------------|
D|-----444---444---444---444---444---444---444----------------|
A|-----444---444---444---444---444---444---444-----7-6-5-4----|
E|-----222---222---222---222---222---222---222----------------|

_____________________________________________________________


2nd part of chorus here , twice.

e|---------------------------------------------------------------|
B|---------------------------------------------------------------|
G|---------------------------------------------------------------|
D|---------------------------------------------------------------|
A|-----4----------4--------------7-------6------------4------6---|
E|-------4-4--------4-4------------4-------4----7-4-----4------4-|

e|---------------------------------------------------------------|
B|---------------------------------------------------------------|
G|---------------------------------------------------------------|
D|------------------------------6-4------------------------------|
A|-----7-----------7---6----------------7--6--7--6--4------------|
E|-------4-4---------4-------------------------------------------|(x2)

_____________

e|---------------------------------------------------------------|
B|---------------------------------------------------------------|
G|-----66---------666--777---------------------------------------|
D|-----66--(x8)---666--555---------------------------------------|
A|-----44---------444--555---------------------------------------|
E|---------------------------------------------------------------|


e|----------------|-----------------------------------------------|
B|----------------|-----------------------------------------------|
G|----------------|-----------------------------------------------|
D|---22--------2--|----55-----------------------------------------|
A|---22--(x5)--2--|----55-(x3)------5-5----7-7-7-7----------------|
E|---00--------0--|----33-----------5-5----5-5-5-5----------------|


e|----------------|-----------------------------------------------|
B|----------------|-----------------------------------------------|
G|----------------|-----------------------------------------------|
D|---22--------2--|----77-77-77-----5-5-5-5-----------------------|
A|---22--(x5)--2--|----55-55-55-----3-3-3-3-----------------------|
E|---00--------0--|-----------------------------------------------|


e|----------------|-----------------------------------------------|
B|----------------|-----------------------------------------------|
G|----------------|-----------------------------------------------|
D|---22--------2--|-------55-55-55------7-7-7-7-------------------|
A|---22--(x5)--2--|-------55-55-55------7-7-7-7-------------------|
E|---00--------0--|-------33-33-33------5-5-5-5-------------------|


e|----------------|-----------------------------------------------|
B|----------------|-----------------------------------------------|
G|----------------|-----------------------------------------------|
D|---22--------2--|----77-77-77-----5-5-5-5-----------------------|
A|---22--(x5)--2--|----55-55-55-----3-3-3-3-----------------------|
E|---00--------0--|-----------------------------------------------|

____________________________________________________________________


e|---------------------------------------------------------------|
B|---------------------------------------------------------------|
G|---------------------------------------------------------------|
D|---2~------7-7-----2~-------7-7-7------------------------------|
A|---2~------7-7-----2~-------7-7-7------------------------------|
E|---0~------5-5-----0~-------5-5-5/pulloff&slideup--------------|


e|---------------------------------------------------------------|
B|---------------------------------------------------------------|
G|---------------------------------------------------------------|
D|-----7-7-------2-----------------------------------------------|
A|-----5-5-------2--------7---------5v---------------------------|
E|---------------0--------5--------------------------------------|

_____________________________________________

Ok, we have all parts already, now there is a compilation of those above :]

I hope You can find them yourselves and play it right :-P.
I think there are no mistakes.
But I tabb it from ear so if You have any suggestions or something - message
me please, here, or on youtube (Dadianooo is my nick).

cheers, have a nice fun with Kinslayer.
Suggest correction
comments
print report bad tab
2 comments total.
0 reply
Haris_rock 1,933 Apr 10, 2009 05:35 PM

greta great...man thanks for this tab....

0 reply
polican59 10 Aug 08, 2016 06:23 AM

E string is second guitar?

guest
You may want to rate the tab now too:
select rating
Wanna post a correction for this tab? Suggest correction