Oops, an error
Loading. Please wait.

The Pharaoh Sails To Orion Bass Tab

version 1
version 1

Whole song

Interactive

22 views 3 this week
no commentswrite comment
1 2 3 4 5
3 more votes to show rating
add to favorites
launch autoscroll
font size
0
reset
guitar tuner
Autoscroll
slow
fast
+/-
esc
set tempo
stop
Help us to improve Ultimate-Guitar.com Take our survey!
×
Author
Difficulty
intermediate
 Song: The Pharaoh Sails To Orion
 Band: Nightwish
 Album: Oceanborn (with some thinks of live versions)
 Bassist: Sami Vanska
 Composer: T. Holopainen
 Tabbed by: FLBatista
 Tunning: Standard Tuning


INTRO (Get away from me...):

G|------------------------------------|
D|------------------------------------|
A|-5-5----5-5--------5-5----5-5-------|
E|---------------------------------4--|

G|------------------------------------------|
D|------------------------------------------|
A|-5-5----5-5--------5-5----5-5----------6--|
E|---------------------------------3h4p3----|


G|-----------------|x4
D|-----------------|
A|-5---5---5---5---|
E|-----------------|


MAIN RIFF:

G|---------------------------------|x2
D|---------------------------------|
A|-5-5-5-5-5-5-5-5-5-5-5-5-5-5-5-5-|
E|---------------------------------|

G|---------------------------------|x2
D|---------------------------------|
A|---------------------------------|
E|-4-4-4-4-4-4-4-4-4-4-4-4-4-4-4-4-|

G|---------------------------------|
D|---------------------------------|
A|---------------------------------|
E|-5-5-5-5-5-5-5-5-5-5-5-5-5-5-5-5-|

G|---------------------------------|
D|---------------------------------|
A|---------------------------------|
E|-3-3-3-3-3-3-3-3-3-3-3-3-3-3-3-3-|

G|---------------------------------|
D|---------------------------------|
A|-5-5-5-5-5-5-5-5-5-5-5-5-5-5-5-5-|
E|---------------------------------|

G|-------------------------------|
D|-------------------------------|
A|-5-5-5-5-5-5-5-5-5-5-5-5-1--3--|
E|-------------------------------|

G|---------------------------------|x2
D|---------------------------------|
A|-5-5-5-5-5-5-5-5-5-5-5-5-5-5-5-5-|
E|---------------------------------|

G|---------------------------------|
D|---------------------------------|
A|---------------------------------|
E|-4-4-4-4-4-4-4-4-4-4-4-4-4-4-4-4-|

G|----------------------------------|
D|-/6-6-6-6-6-6-6-6-6-6-6-6-6-6-6-6-|
A|----------------------------------|
E|----------------------------------|

G|---------------------------------|
D|---------------------------------|
A|---------------------------------|
E|-5-5-5-5-5-5-5-5-5-5-5-5-5-5-5-5-|

G|---------------------------------|
D|---------------------------------|
A|---------------------------------|
E|-3-3-3-3-3-3-3-3-3-3-3-3-3-3-3-3-|

G|---------------------------------|
D|---------------------------------|
A|-5-5-5-5-5-5-5-5-5-5-5-5-5-5-5-5-|
E|---------------------------------|

G|-------------------------------|
D|-------------------------------|
A|-5-5-5-5-5-5-5-5-5-5-5-5-1--3--|
E|-------------------------------|

G|------------------------------|
D|------------------------------|
A|-5--------5-5--------/8--6--5-|
E|------------------------------|


VERSE (A constelation of...):

G|---------------------------------------------|
D|---------------------------------------------|
A|-5h6p5--3--5h6-3--5---5--5h6p5--5h6----3--5--|
E|------------------------------------1--------|

G|--------------------------------------------|
D|--------------------------------------------|
A|-2--2h3p2-0--0-0-2-2h3-3--2h3p2--0-5--3--2--|
E|--------------------------------------------|

G|----------------------------------------------|
D|----------------------------------------------|
A|-5h6p5--3--5h6-3--5---5-5--5h6p5--3-/8--6--5--|
E|----------------------------------------------|

G|------------------------------------------------|
D|------------------------------------------------|
A|-2--2--0--0-0-2-2-2h3-3--2h3p2-0-5--5-5-5-3--2--|
E|------------------------------------------------|


MAIN RIFF:

G|---------------------------------|x2
D|---------------------------------|
A|-5-5-5-5-5-5-5-5-5-5-5-5-5-5-5-5-|
E|---------------------------------|

G|---------------------------------|x2
D|---------------------------------|
A|---------------------------------|
E|-4-4-4-4-4-4-4-4-4-4-4-4-4-4-4-4-|

G|---------------------------------|
D|---------------------------------|
A|---------------------------------|
E|-5-5-5-5-5-5-5-5-5-5-5-5-5-5-5-5-|

G|---------------------------------|
D|---------------------------------|
A|---------------------------------|
E|-3-3-3-3-3-3-3-3-3-3-3-3-3-3-3-3-|

G|---------------------------------|
D|---------------------------------|
A|-5-5-5-5-5-5-5-5-5-5-5-5-5-5-5-5-|
E|---------------------------------|

G|-------------------------------|
D|-------------------------------|
A|-5-5-5-5-5-5-5-5-5-5-5-5-1--3--|
E|-------------------------------|

G|---------------------------------|x2
D|---------------------------------|
A|-5-5-5-5-5-5-5-5-5-5-5-5-5-5-5-5-|
E|---------------------------------|

G|---------------------------------|
D|---------------------------------|
A|---------------------------------|
E|-4-4-4-4-4-4-4-4-4-4-4-4-4-4-4-4-|

G|----------------------------------|
D|-/6-6-6-6-6-6-6-6-6-6-6-6-6-6-6-6-|
A|----------------------------------|
E|----------------------------------|

G|---------------------------------|
D|---------------------------------|
A|---------------------------------|
E|-5-5-5-5-5-5-5-5-5-5-5-5-5-5-5-5-|

G|---------------------------------|
D|---------------------------------|
A|---------------------------------|
E|-3-3-3-3-3-3-3-3-3-3-3-3-3-3-3-3-|

G|---------------------------------|
D|---------------------------------|
A|-5-5-5-5-5-5-5-5-5-5-5-5-5-5-5-5-|
E|---------------------------------|

G|-------------------------------|
D|-------------------------------|
A|-5-5-5-5-5-5-5-5-5-5-5-5-1--3--|
E|-------------------------------|

G|------------------------------|
D|------------------------------|
A|-5--------5-5--------/8--6--5-|
E|------------------------------|


VERSE:

G|---------------------------------------------|
D|---------------------------------------------|
A|-5h6p5--3--5h6-3--5---5--5h6p5--5h6----3--5--|
E|------------------------------------1--------|

G|--------------------------------------------|
D|--------------------------------------------|
A|-2--2h3p2-0--0-0-2-2h3-3--2h3p2--0-5--3--2--|
E|--------------------------------------------|

G|----------------------------------------------|
D|----------------------------------------------|
A|-5h6p5--3--5h6-3--5---5-5--5h6p5--3-/8--6--5--|
E|----------------------------------------------|

G|------------------------------------------------|
D|------------------------------------------------|
A|-2--2--0--0-0-2-2-2h3-3--2h3p2-0-5--5-5-5-3--2--|
E|------------------------------------------------|



INTERLUDE:

G|-------------------------------------|x3
D|-------------------------------------|
A|-5---5---6-6-6--3--5---5---3-3-3--3--|
E|-------------------------------------|

G|--------------------------------|
D|--------------------------------|
A|-5---5---6-6-6--3--5---5--5--3--|
E|--------------------------------|


VERSE 2 (Reveal you face...):

G|---------------------------|------------------------------|
D|---------------------------|------------------------------|
A|-5--5-5-5--5--5--5-5-5--5--|-0--0-0-0--0--0--0--0-0-0--0--|
E|---------------------------|------------------------------|

G|---------------------------|------------------------------|
D|---------------------------|------------------------------|
A|-5--5-5-5--5--5--5-5-5--5--|-----------------3--3-3-3--3--|
E|---------------------------|-1--1-1-1--1--1---------------|

G|---------------------------|------------------------------|
D|---------------------------|------------------------------|
A|-5--5-5-5--5--5--5-5-5--5--|------------------------------|
E|---------------------------|-3--3-3-3--3--3--3--3-3-3--3--|

G|---------------------------|---------------------------------|
D|---------------------------|---------------------3-----------|
A|---------------------------|-5-5-5-5-5-5-5-5-3h5---5-3-------|
E|-5--5-5-5--5--5--5-5-5--5--|---------------------------5-3-5-|

G|---------------------------------|---------------------------------|
D|---------------------------------|---------------------------------|
A|---------------------------------|---------------------------------|
E|-6-6-6-6-6-6-6-6-6-6-6-6-6-6-6-6-|-1-1-1-1-1-1-1-1-1-1-1-1-1-1-1-1-|

G|---------------------------------|---------------------------------|
D|---------------------------------|---------------------------------|
A|-3-3-3-3-3-3-3-3-3-3-3-3-3-3-3-3-|-5-------5-------5-------3-------|
E|---------------------------------|---------------------------------|

G|---------------------------------|---------------------------------|
D|---------------------------------|---------------------------------|
A|-1-1-1-1-1-1-1-1-1-1-1-1-1-1-1-1-|---------------------------------|
E|---------------------------------|-1-1-1-1-1-1-1-1-1-1-1-1-1-1-1-1-|

G|---------------------------------|---------------------------------|
D|---------------------------------|---------------------------------|
A|---------------------------------|-5-5-5-5-5-5-5-5-5-------3-------|
E|-3-3-3-3-3-3-3-3-3-3-3-3-3-3-3-3-|---------------------------------|

G|---------------------------------|---------------------------------|
D|---------------------------------|---------------------------------|
A|---------------------------------|---------------------------------|
E|-6-6-6-6-6-6-6-6-6-6-6-6-6-6-6-6-|-1-1-1-1-1-1-1-1-1-1-1-1-1-1-1-1-|

G|---------------------------------|---------------------------------|
D|---------------------------------|---------------------------------|
A|-3-3-3-3-3-3-3-3-3-3-3-3-3-3-3-3-|-5-------5-------5-------3-------|
E|---------------------------------|---------------------------------|

G|---------------------------------|---------------------------------|
D|---------------------------------|---------------------------------|
A|-1-1-1-1-1-1-1-1-1-1-1-1-1-1-1-1-|---------------------------------|
E|---------------------------------|-1-1-1-1-1-1-1-1-1-1-1-1-1-1-1-1-|

G|---------------------------------|---------------------------------|
D|---------------------------------|---------------------------------|
A|---------------------------------|-5-------5-------5-------5-------|
E|-3-3-3-3-3-3-3-3-3-3-3-3-3-3-3-3-|---------------------------------|

G|---------------------------------|x3
D|---------------------------------|
A|-5-------5-------5-------5-------|
E|---------------------------------|


INTERLUDE 2:

G|--------------------------------------------------|
D|--------------------------------------------------|
A|-3-3---3-3---3--4-4--------4-4--3---3-3-1-3-------|
E|--------------------1--0-0------------------------|

G|----------------------------------------------------|
D|----------------------------------------------------|
A|-3---3-3---3--4-4--------4-4-3-3-1-3--1-3-------/-\-|
E|------------------1--0-0----------------------------|


VERSE 3 (Open thy veins...):

G|---------------------------------|---------------------------------|
D|---------------------------------|---------------------------------|
A|---------------------------------|---------------------------------|
E|-3-3-3-3-3-3-3-3-3-3-3-3-3-3-3-3-|-3-3-3-3-3-3-3-3-3-3-3-3-3-3-3-3-|

G|---------------------------------|---------------------------------|
D|---------------------------------|---------------------------------|
A|-1-1-1-1-1-1-1-1-1-1-1-1-1-1-1-1-|-1-1-1-1-1-1-1-1-1-1-1-1-1-1-1-1-|
E|---------------------------------|---------------------------------|

G|---------------------------------|---------------------------------|
D|---------------------------------|---------------------------------|
A|---------------------------------|---------------------------------|
E|-3-3-3-3-3-3-3-3-3-3-3-3-3-3-3-3-|-3-3-3-3-3-3-3-3-3-3-3-3-3-3-3-3-|

G|---------------------------------|----------------------------------|
D|---------------------------------|-/8-8-8-8-8-8-8-8-8-8-8-8-8-8-8-8-|
A|-1-1-1-1-1-1-1-1-1-1-1-1-1-1-1-1-|----------------------------------|
E|---------------------------------|----------------------------------|


INTERLUDE 2

G|--------------------------------------------------|
D|--------------------------------------------------|
A|-3-3---3-3---3--4-4--------4-4--3---3-3-1-3-------|
E|--------------------1--0-0------------------------|

G|----------------------------------------------------|
D|----------------------------------------------------|
A|-3---3-3---3--4-4--------4-4-3-3-1-3--1-3-------/-\-|
E|------------------1--0-0----------------------------|


KEYBOARD SOLO:

G|---------------------------------|---------------------------------|
D|---------------------------------|---------------------------------|
A|---------------------------------|---------------------------------|
E|-0-0-0-0-0-0-0-0-0-0-0-0-0-0-0-0-|-0-0-0-0-0-0-0-0-0-0-0-0-0-0-0-0-|

G|---------------------------------|---------------------------------|
D|---------------------------------|---------------------------------|
A|---------------------------------|---------------------------------|
E|-1-1-1-1-1-1-1-1-1-1-1-1-1-1-1-1-|-3-3-3-3-3-3-3-3-3-3-3-3-3-3-3-3-|

G|---------------------------------|---------------------------------|
D|---------------------------------|---------------------------------|
A|---------------------------------|---------------------------------|
E|-0-0-0-0-0-0-0-0-0-0-0-0-0-0-0-0-|-0-0-0-0-0-0-0-0-0-0-0-0-0-0-0-0-|

G|---------------------------------|---------------------------------|
D|---------------------------------|---------------------------------|
A|---------------------------------|---------------------------------|
E|-3-3-3-3-3-3-3-3-3-3-3-3-3-3-3-3-|-5-5-5-5-5-5-5-5-5-5-5-5-5-5-5-5-|

G|---------------------------------|---------------------------------|
D|---------------------------------|---------------------------------|
A|---------------------------------|---------------------------------|
E|-0-0-0-0-0-0-0-0-0-0-0-0-0-0-0-0-|-0-0-0-0-0-0-0-0-0-0-0-0-0-0-0-0-|

G|---------------------------------|---------------------------------|
D|---------------------------------|---------------------------------|
A|---------------------------------|---------------------------------|
E|-3-3-3-3-3-3-3-3-3-3-3-3-3-3-3-3-|-5-5-5-5-5-5-5-5-5-5-5-5-5-5-5-5-|

G|---------------------------------|---------------------------------|
D|---------------------------------|---------------------------------|
A|---------------------------------|---------------------------------|
E|-0-0-0-0-0-0-0-0-0-0-0-0-0-0-0-0-|-0-0-0-0-0-0-0-0-0-0-0-0-0-0-0-0-|

G|---------------------------------|---------------------------------|
D|---------------------------------|---------------------------------|
A|---------------------------------|---------------------------------|
E|-3-3-3-3-3-3-3-3-3-3-3-3-3-3-3-3-|-5-------5-------5-------5-------|


INTERLUDE 3

G|----------------------------------------|x2
D|----------------------------------------|
A|-5--------1-1----3---3-5\----1-1----3---|
E|----------------------------------------|


INTERLUDE 3 (PART 2) (x2):

G|---------------------------------------------------------|
D|---------------------------------------------------------|
A|-5--5-5-5--5-5-5--5-5-5--5-5-1--1-1-1--1-1-1--1-1-1--1-1-|
E|---------------------------------------------------------|

G|---------------------------------------------------------|
D|---------------------------------------------------------|
A|-3--3-3-3--3-3-3--3-3-3--3-3-1--1-1-1--1-1-1--1-1-1--1-1-|
E|---------------------------------------------------------|

G|---------------------------------------------------------|
D|---------------------------------------------------------|
A|-0--0-0-0--0-0-0--0-0-0--0-0-5--5-5-5--5-5-5--5-5-5--5-5-|
E|---------------------------------------------------------|

G|---------------------------------------------------------|
D|---------------------------------------------------------|
A|-3--3-3-3--3-3-3--3-3-3--3-3-----------------------------|
E|-----------------------------3--3-3-3--3-3-3--3-3-3--3-3-|

G|---------------------------------------------------------|
D|---------------------------------------------------------|
A|-----------------------------3--3-3-3--3-3-3--3-3-3--3-3-|
E|-1--1-1-1--1-1-1--1-1-1--1-1-----------------------------|


GUITAR ARPEGGIO:

G|----------------------------|
D|----------------------------|
A|-5-5-5-5-5-5-5-5-5-----5----|
E|--------------------5-------|


VERSE (Sailing on the distant seas...):

G|-------------------------------------------------|
D|-------------------------------------------------|
A|-1-1-1-1-1-1-1-1-1-1-1-1-------------------------|
E|-------------------------1-1-1-1-1-1-1-1-1-1-1-1-|

G|-------------------------------------------------|
D|-----------------------------------------3-------|
A|-3-3-3-3-3-3-3-3-3-3-3-3-5-5-5-5-5-5-3h5---5-3---|
E|-----------------------------------------------5-|

G|-------------------------------------------------|
D|-------------------------------------------------|
A|-1-1-1-1-1-1-1-1-1-1-1-1-------------------------|
E|-------------------------1-1-1-1-1-1-1-1-1-1-1-1-|

G|-------------------------------------------|
D|-------------------------------------------|
A|-------------------------5-5-5-5-5-5-5--3--|
E|-3-3-3-3-3-3-3-3-3-3-3-3-------------------|

G|-------------------------------------------------|
D|-------------------------------------------------|
A|-1-1-1-1-1-1-1-1-1-1-1-1-------------------------|
E|-------------------------1-1-1-1-1-1-1-1-1-1-1-1-|

G|-------------------------------------------|
D|-------------------------------------------|
A|-3-3-3-3-3-3-3-3-3-3-3-3-5-5-5-5-5-5-5--3--|
E|-------------------------------------------|

G|-------------------------------------------------|
D|-------------------------------------------------|
A|-1-1-1-1-1-1-1-1-1-1-1-1-0-0-0-0-0-0-0-0-0-0-0-0-|
E|-------------------------------------------------|

G|------------------------------------------|
D|------------------------------------------|
A|---------------------0-0-0-0-0-0-0--0--0--|
E|-3--3-3-3-3--3-3-3-3----------------------|

G|---------------------------------------------|
D|---------------------------------------------|
A|-1--1-1-1-1--1-1-1-3--3--3--3--3--3--4-------|
E|---------------------------------------------|

G|------/7---------------------------------------|
D|-7------------5---3---/8-------5-------7-------|
A|-5------------3---1------------3-------5-------|
E|-----------------------------------------------|


CAPTIONS:

 / : Slide Up
 \ : Slide Down
 h : Hammer On
 p : Pull Off
Suggest correction
Give kudos to tab author, rate the tab!
1 2 3 4 5
comments
print report bad tab
guest
You may want to rate the tab now too:
select rating
Wanna post a correction for this tab? Suggest correction