Oops, an error
Loading. Please wait.

The Siren Bass Tab

version 1
version 1

Whole song

Interactive

1,839 views 1 this week
no commentswrite comment
1 2 3 4 5
worth learning
x 1
add to favorites
launch autoscroll
font size
0
reset
guitar tuner
Tab Pro tools
  • play this tab
  • loop segment
  • change instrument
  • show fretboard
  • metronome
Autoscroll
slow
fast
+/-
esc
set tempo
stop
Contributor
Difficulty
Tuning
intermediate
D G C F A D
Title: The Siren
Artist: Nightwish
Album: Once
Composer: Emppu Vuorinen / Tuomas Holopainen
Bassist: Marco Hietala
Tabbed by: FLBatista


INTRO (X2):

F|----------------------------------------------------------|
C|----------------------------------------------------------|
G|----------------------------------------------------------|
D|-3-3-3--3--3--3-3-3--3-3-3-3-3--3-3-3-3-3--3-3-3--3-3-3-3-|


F|--------------------------------------------------------------------|
C|--------------------------------------------------------------------|
G|--------------------------------------------------------------------|
D|-3-3-3--3--3--3-3-3--3-3-3-3-3--3-3-3-3-3--3-3-3--3-3-3-3-3--3-3-1--|


RIFF 1:

F|----------------------------------------------------------|
C|----------------------------------------------------------|
G|----------------------------------------------------------|
D|-3-3-3--3--3--3-3-3--3-3-3-4-3-3-3--3--3-3-3--3-3-3-3-3-4-|


F|---------------------------------------------------------|
C|---------------------------------------------------------|
G|---------------------------------------------------------|
D|-3-3-3--3--3--3-3-3--3-3-3-4-3-3-3--3--3-3-3--3--3-3-3-3-|


VERSE:

F|-----------------------------------------------|x2
C|-----------------------------------------------|
G|-----------------------------------------3-5---|
D|-3-3~---(x)-3-3~---3-3~----(x)-3-(x)-3-3-----4-|


F|------------------------------------------------------------|
C|------------------------------------------------------------|
G|------------------3--------------10-\-----------------3-5---|
D|-3-3~--(x)-3-3--3---1-4-3-3--(x)--------(x)-3-(x)-3-3-----4-|


F|------------------------------------------------------------|
C|------------------------------------------------------------|
G|----------------------3--------------10-\-------------3-5---|
D|-3-3~---(x)-3-(x)-3-3---1-4-3-3--(x)--------(x)-3-(x)-----4-|


CHORUS:

F|-----------------------------------------------------------------------------|
C|-------------------------------------------------------------------3(6x)-1-0-|
G|---------------3(14x)-----------------------1-3(12x)-6-5-3-5-6(8x)-----------|
D|-4(7x)-3-1(8x)--------1-3-4(7x)-3-1(5x)-3-4----------------------------------|


F|------------------------------------------------------------------|
C|--------------------------6----------3--------------1-0-----------|
G|-3(8x)-3---3-------------------------------1-3----3-----3-1~------|
D|---------------3--4---4-4---3\-1---1---1-4--------------------4~--|


PLAY:
- INTRO (x1)


INTRO w. BRIDGE:


F|----------------------------------------------------------|
C|----------------------------------------------------------|
G|----------------------------------------------------------|
D|-3-3-3--3--3--3-3-3--3-3-3-3-3--3-3-3-3-3--3-3-3--3-3-3-3-|


F|----------------------------------------444555-----------|
C|------------------------------------6655------666555-----|
G|----------------------------------------------------8656-|
D|-3-3-3--3--3--3-3-3--3-3-3-3-3-3-3-----------------------|


DURING THE SOLO:
(Pay attention with the rhythm)

F|--------------------------|x2
C|--------------------------|
G|--------------------------|
D|-0--0--0--0--0--0----0--0-|
   .  .  .  .  .  .    .

F|----------------|x3
C|----------------|
G|----------------|
D|-3--3--3-1-4314-|
   .  .

F|--------------|
C|--------------|
G|--------------|
D|-3--3--3-3-1--|
   .  .

F|---------------------------------|x2
C|---------------------------------|
G|---------------------------------|
D|-000-000-000-00000-00000-000-0-0-|


F|--------------------------------------------------|
C|--------------------------------------------------|
G|--------------------------------------------------|
D|-333-333-333-33333-3-333-333-3-3-333-333-333-3333-|


F|---------------------------|
C|---------------------------|
G|---------5b(6)-531---------|
D|-3-3-333----------43143~---|


INTERLUDE:

F|---------------------------|
C|---------------------------|
G|-------------------/10(8x)-|
D|-3~----3~----3(64x)--------|


LAST CHORUS:

F|--------------------------------------------------------------------------------------------|
C|----------------------------------------------------------------------------------3(6x)-1-0-|
G|------------------------1-3(14x)-----------3---------------1-3(12x)-6-5-3-5-6(8x)-----------|
D|-44444-4---4\-1(5x)-3-4----------1-3-4(5X)---4-3-1(5x)-3-4----------------------------------|
00000000

F|--------------------------------------------------------3-5-3---------|
C|--------------------------------------------3-------5-6----------6----|
G|-3(8X)-3---3----------------------------------3---3/--------1---------|
D|---------------3--4---4-4-6-4-3-1---1-1-3-4----------------------4----|

Leg:

(x): Ghost/Dead Note (Percussive sound)
 ~ : Let Ring
 / : Slide Up
 \ : Slide Down
 b() : Bend to
 . : Staccato
comments
We did not receive enough feedback on this tab! Please rate:
print report bad tab
1 2 3 4 5
I want to post or [tab]
guest
You may want to rate the tab now too:
select rating
Please do not post tabs as comments. Select "correction" instead!