Oops, an error
Loading. Please wait.

The Siren Tab

version 1
version 1

Whole song

Interactive

9,855 views 12 this week
2 commentsread comments
1 2 3 4 5
accurate
x 3
add to favorites
launch autoscroll
font size
0
reset
how to read this tab
guitar tuner
Autoscroll
slow
fast
+/-
esc
set tempo
stop
Help us to improve Ultimate-Guitar.com Take our survey!
×
Contributor
Difficulty
Tuning
advanced
D G C F A D
Artist: Nightwish
Song: The Siren
Album: Once
Tuning: D Standard

Riff 1 (4x): (00:08 - 00:25)
 
d|---------------------------------------------------------------|
A|---------------------------------------------------------------|
F|-------12-00000-8877-000-10-00000-5577-00000-44455-0h1p0-------|
C|---------------------------------------------------------------|
G|---------------------------------------------------------------|
D|---------------------------------------------------------------|

Riff 2 (1x): (00:25 - 00:33)

d|---------------------------------------------------------------------|
A|---------------------------------------------------------------------|
F|---------------------------------------------------------------------|
C|---555-55-555------555-55-555------555-55-555------555-55-555--------|
G|---555-55-555------555-55-555------555-55-555------555-55-555--------|
D|---333-33-333-3534-333-33-333-5434-333-33-333-3534-333-33-333-5434---|

Riff 3 (1x): (01:05 - 01:35)

d|--------------------------------------------|
A|--------------------------------------------|
F|---3~------5~--3~------5~--3~------5~--3~---|
C|---3~--5~--5~--3~--5~--5~--3~--5~--5~--3~---|
G|---1~--5~--3~--1~--5~--3~--1~--5~--3~--1~---|
D|-------3~----------3~----------3~-----------|
 
Riff 1 (4x): (01:36 - 01:53)
 
d|---------------------------------------------------------------|
A|---------------------------------------------------------------|
F|-------12-00000-8877-000-10-00000-5577-00000-44455-0h1p0-------|
C|---------------------------------------------------------------|
G|---------------------------------------------------------------|
D|---------------------------------------------------------------|

Riff 4 (1x): (01:53 - 01:54)

d|----------|
A|----------|
F|----------|
C|----------|
G|---6545---|
D|----------|

Riff 5 (1x): (01:55 - 02:23)

d|----------------------------------------------------------------|
A|----------------------------------------------------------------|
F|----------------------------------------------------------------|
C|---555-55-555--555-55-555--555-55-555--555-55-555--666-66-666---|
G|---555-55-555--555-55-555--555-55-555--555-55-555--666-66-666---|
D|---333-33-333--333-33-333--333-33-333--333-33-333--444-44-444---|

Riff 6 (1x): (02:24 - 02:25)

d|---------------|
A|---------------|
F|---------------|
C|---------------|
G|---6543--------|
D|-------6543~---|

Riff 7 (1x): (02:57 - 03:04)

d|------------------------------------|
A|------------------------------------|
F|------------------------------------|
C|---555-555-5-------555-555-5--------|
G|---555-555-5-345~--555-555-5-345~---|
D|---333-333-3-------333-333-3--------|

Riff 8: (1x): (03:05 - 03:22)

d|---------------------------------------------------------------|
A|---------------------------------------------------------------|
F|---------------------------------------------------------------|
C|---555555555555555555555555555555555555555555555555555555555---|
G|---555555555555555555555555555555555555555555555555555555555---|
D|---333333333333333333333333333333333333333333333333333333333---|

Riff 3 (1x): (03:23 - 03:54)

d|----------------------------------------------------|
A|----------------------------------------------------|
F|---3~------5~--3~------5~--3~------5~--3~------5~---|
C|---3~--5~--5~--3~--5~--5~--3~--5~--5~--3~--5~--5~---|
G|---1~--5~--3~--1~--5~--3~--1~--5~--3~--1~--5~--3~---|
D|-------3~----------3~----------3~----------3~-------|
Suggest correction What's this?
You can suggest a correction to this tab. Community and Mods will review your correction and vote to approve or reject it.
comments
We did not receive enough feedback on this tab! Please rate:
print report bad tab
1 2 3 4 5
2 comments total.
0 reply
Sakuboi 818 wrote on December 20 2009, 06:28 am

eh.. Advanced..?? and it´s totally wrong

0 reply
katerina.benisk 11 wrote on February 2 2015, 02:12 pm

I think its more like this

Riff 3 (1x): (01:05 - 01:35)

d|-----------------------------------------------------|
A|-----------------------------------------------------|
F|-----------5~----------5~----------5~----------5~--3~|
C|--6~---3~--5~--6~--3~--5~--6~--3~--5~--6~--3~--5~--3~|
G|--6~---3~--3~--6~--3~--3~--6~--3~--3~--6~--3~--3~--1~|
D|--4~---1~------4~--1~------4~--1~------4~--1~--------|

I want to post or [tab]
guest
You may want to rate the tab now too:
select rating
Please do not post tabs as comments. Select "correction" instead!