Oops, an error
Loading. Please wait.

Walking In The Air Live Tab

version 1
version 1

Solo

Interactive

3,192 views 3 this week
1 commentread comment
1 2 3 4 5
x 4
add to favorites
×
Save as Personal and add changes to this tab that will be seen only by you. Learn more ›
×
You can save this tab as Personal to edit and correct it or add notes. All changes will be seen only by you. Learn more »
save as personal
new!
launch autoscroll
font size
0
reset
how to read this tab
guitar tuner
Autoscroll
slow
fast
+/-
esc
set tempo
stop
band-Nightwish
song-Walking in the air
album-Oceanborn
live: from wishes to eternity
tabber: emppu_jr.

PLEASE RATE!


2:45 Solo
e:-------------------------------------------------------------------|
B:-/10--15-15-13-13-10----10-15-15-13-13-10p6-8-h10-8--8-10-11--10-8-|
G:-------------------------------------------------------------------|
D:-------------------------------------------------------------------|
A:-------------------------------------------------------------------|
E:-------------------------------------------------------------------|

e:------------------------------------10--12-13-12-10--8h10p8----8h10p8----|
B:---------------------------10~~--10-------------------------10--------10b|
G:-7-9-10--9-7----5-7~-5\2-------------------------------14----------------|
D:-------------------------------------------------------------------------|
A:-------------------------------------------------------------------------|
E:-------------------------------------------------------------------------|

e:-10-12-13-12-13--13/15-15-15-15-17-17-15-15--15-15-17-18-17-15h18-----|
B:-10-------------------------------------------------------------------|
G:----------------------------------------------------------------------|
D:----------------------------------------------------------------------|
A:----------------------------------------------------------------------|
E:----------------------------------------------------------------------|

e:-----------------------------------|
B:-15h17-17^-17-15-13h15--13\10 10~--|
G:-----------------------------------|
D:-----------------------------------|
A:-----------------------------------|
E:-----------------------------------|
Suggest correction
comments
print report bad tab
1 comment total.
0 reply
bekkos 25 May 19, 2017 02:15 PM, edited at 06:43 pm

Pretty much spot on, great tab! Thanks!

EDIT: Actually they only play "8h10p8" once and the correct ending is (after the first 8h10p8) is

e:----10---12--13--12--13---15/-----15-17-15---15-17-18---17-15-------------------------------------|
B:10-----------------------------------------------------------------------------15-17--18--17-15----13-10/-|
G:--------------------------------------------------------------------------------------------------------------------|
D:--------------------------------------------------------------------------------------------------------------------|
A:--------------------------------------------------------------------------------------------------------------------|
E:--------------------------------------------------------------------------------------------------------------------|

guest
Wanna post a correction for this tab? Suggest correction