Oops, an error
Loading. Please wait.

Walking In The Air Tab

version 1
version 1

Whole song

Interactive

11,459 views 12 this week
1 commentread comment
1 2 3 4 5
accurate
x 3
add to favorites
launch autoscroll
font size
0
reset
how to read this tab
guitar tuner
Autoscroll
slow
fast
+/-
esc
set tempo
stop
Help us to improve Ultimate-Guitar.com Take our survey!
×
Author
Nightwish
Oceanborn
"Walking In The Air"

Normal tuning: EADGBE

1:07

e:--------------|
B:--------------|
G:-7------------|
D:-7------------|
A:-5------------|
E:--------------|

2:45 Solo
e:-------------------------------------------------------------------|
B:-/10--15-15-13-13-10----10-15-15-13-13-10p6-8-h10-8--8-10-11--10-8-|
G:-------------------------------------------------------------------|
D:-------------------------------------------------------------------|
A:-------------------------------------------------------------------|
E:-------------------------------------------------------------------|

e:-------------------------------------------------------|
B:-7-9-10--9-7-5h7p5----------13-15-17-17-15-17p15-15----|
G:-------------------7~----14-------------------------14-|
D:-------------------------------------------------------|
A:-------------------------------------------------------|
E:-------------------------------------------------------|

e:-----------------------15----17--15-----13-15-18-17-15----------------|
B:-----13-15-17-17-15-17----------------------------------13-15-18-17-15|
G:--14------------------------------------------------------------------|
D:----------------------------------------------------------------------|
A:----------------------------------------------------------------------|
E:----------------------------------------------------------------------|

e:---------------------|
B:-13-15-13-10~--------|
G:---------------------|
D:---------------------|
A:---------------------|
E:---------------------|

3:46 Riffs...[Play twice]

e:---------------------------------------------------------------|
B:---------------------------------------------------------------|
G:-7----5--7-5------3--5--7--------------------------------------|
D:-7----5--7-5--5---3--5--7--------------------------------------|
A:-5----3--5-3--5---1--3--5--------------------------------------|
E:--------------3------------------------------------------------|

4:24

e:-------------------------------|
B:-------------------------------|
G:/\-7*---5--7-5-----3--5--7*----|
D:/\-7*---5--7-5--5*-3--5--7*----|
A:/\-5*---3--5-3--5*-1--3--5*----|
E:----------------3*-------------|

4:44

e:---------------------------|
B:---------------------------|
G:-7*---5--7-5-------3---5-7-|
D:-7*---5-------5*---------7-|
A:-5*---3-------5*-1---3---5-|
E:--------------3*-----------|

5:05

e:-------------\----------|
B:-------------\----------|
G:7----5-------\---7------|
D:--7----5-----\--7-------|
A:-----------7-\-5--------|
E:-------------\----------|
Suggest correction
What's this?
You can suggest a correction to this tab. Community and Mods will review your correction and vote to approve or reject it.
comments
We did not receive enough feedback on this tab! Please rate:
print report bad tab
1 2 3 4 5
1 comment total.
0 reply
adam_steen 11 wrote on July 4 2007, 09:54 am

some of the notes seem wrong to me, here's my recomendation for changes:

2:45 Solo
e:------10-10----------------10-10---------------------------------------|
B:-/10--------13-13-10----10-------13-13------------------------10b11~---|
G:-------------------------------------------10-12-12b14---10h12------12-|
D:-----------------------------------------------------------------------|
A:-----------------------------------------------------------------------|
E:-----------------------------------------------------------------------|

e:----------------------------------------------------------|
B:---------------------------------15---17~b18-13-15-15p13--|
G:-------9b10~-------------------14--14-------------------14|
D:-10h12------12-10h12p10-----------------------------------|
A:-----------------------h12--------------------------------|
E:----------------------------------------------------------|

e:-------------------15~/17\15~---15-17-17/18\17-15---------------------|
B:----15---17~b18-13--------------------------------15-17-17/18\17-15---|
G:--14--14--------------------------------------------------------------|
D:----------------------------------------------------------------------|
A:----------------------------------------------------------------------|
E:----------------------------------------------------------------------|

e:---------------------|
B:-13-15~p13-----------|
G:----------14~--------|
D:---------------------|
A:---------------------|
E:---------------------|

guest
You may want to rate the tab now too:
select rating
Please do not post tabs as comments. Select "correction" instead!