Oops, an error
Loading. Please wait.

Walking In The Air Tab

version 4
version 4

Whole song

Interactive

1,102 views 1 this week
no commentswrite comment
1 2 3 4 5
please rate
add to favorites
launch autoscroll
font size
0
reset
how to read this tab
guitar tuner
Tab Pro tools
  • play this tab
  • loop segment
  • change instrument
  • show fretboard
  • metronome
×
Best way to learn
"Walking In The Air"
Autoscroll
slow
fast
+/-
esc
set tempo
stop
Contributor
-------------------------------------------------------------------------------
                             Walking In The Air - Nightwish
-------------------------------------------------------------------------------
Tabbed by: Borbi01
Email: sebastianmorlang@googlemail.com

Tuning: Standard

(1:08)
e|---------------------------------------------------------------------------|
B|---------------------------------------------------------------------------|
G|-7-------------------------------------------------------------------------|
D|-7-------------------------------------------------------------------------|
A|-5-------------------------------------------------------------------------|
E|---------------------------------------------------------------------------|

Solo:
e|---------------------------------------------------------------------------|
B|-------15-15-13-13----------15-15-13-13--------------10---------10-11------|
G|-14-14-------------14---14---------------14---10-12-----12---12------------|-
D|---------------------------------------------------------------------------|
A|---------------------------------------------------------------------------|
E|---------------------------------------------------------------------------|

e|--------------------------------------------10----12-13-12-10-8h10p8-------|
B|-10--------------------------------------10----10--------------------10----|
G|----12-----9-10--9---------------------------------------------------------|
D|--------12---------12--10-12--10-------------------------------------------|
A|---------------------------------12----------------------------------------|
E|---------------------------------------------------------------------------|

e|----10----12-13-12-13-15--17-15--15-17-18--17-18--13-15-17--15-13--12-13--12-----|
B|-10----10--------------------------------------------------------------------10--|
G|---------------------------------------------------------------------------------|
D|---------------------------------------------------------------------------------|
A|---------------------------------------------------------------------------------|
E|---------------------------------------------------------------------------------|

03:47)
e|----------------------------------------------------------------------------|
B|----------------------------------------------------------------------------|
G|-7----5---7--5---------3--5--7----------------------------------------------|
D|-7----5---7--5----5----3--5--7----------------------------------------------| 2x
A|-5----3---5--3----5----1--3--5----------------------------------------------|
E|------------------3---------------------------------------------------------|

e|---------------------------------------------------------------------------|
B|---------------------------------------------------------------------------|
G|-7-----7-----7-----7-----7-----7-----7-----7-----7-----7-----7-----7-------|
D|-7-----7-----7-----7-----7-----7-----7-----7-----7-----7-----7-----7-------|
A|-5-5-5-5-5-5-5-5-5-5-5-5-5-5-5-5-5-5-5-5-5-5-5-5-5-5-5-5-5-5-5-5-5-5-5-5---|
E|---------------------------------------------------------------------------|
     x x   x x   x x   x x   x x   x x   x x   x x   x x   x x   x x   x x 
               
e|-----------------------------------------------------------------------------|
B|-----------------------------------------------------------------------------|
G|-5---7--5---------------------------------3------5---7-----7-----7-----7-----|
D|-5---7--5---5-----5-----5-----5---------3------5-----7-----7-----7-----7-----|
A|-3---5--3---5-----5-----5-----5-------1------3-------5-5-5-5-5-5-5-5-5-5-5-5-|
E|------------3-3-3-3-3-3-3-3-3-3-3-3------------------------------------------|
                x x   x x   x x   x x                    x x   x x   x x   x x

e|------------------------------|
B|------------------------------|
G|-7-----7-----7-----7----------|
D|-7-----7-----7-----7----------|
A|-5-5-5-5-5-5-5-5-5-5-5-5------|
E|------------------------------|
     x x   x x   x x   x x

e|---------------------------------------------------------------------------|
B|---------------------------------------------------------------------------|
G|-7-----7-----7-----7-----7-----7-----7-----7-----7-----7-----7-----7-------|
D|-7-----7-----7-----7-----7-----7-----7-----7-----7-----7-----7-----7-------|
A|-5-5-5-5-5-5-5-5-5-5-5-5-5-5-5-5-5-5-5-5-5-5-5-5-5-5-5-5-5-5-5-5-5-5-5-5---|
E|---------------------------------------------------------------------------|
     x x   x x   x x   x x   x x   x x   x x   x x   x x   x x   x x   x x

e|----------------------------------------------------|
B|----------------------------------------------------|
G|-5---7--5---------------------------------3------5--|
D|-5---7--5---5-----5-----5-----5---------3------5----|
A|-3---5--3---5-----5-----5-----5-------1------3------|
E|------------3-3-3-3-3-3-3-3-3-3-3-3-----------------|


Ending:
e|--------------------------|
B|--------------------------|
G|-7---5--------------7-----|
D|--------7---5---7---7-----|
A|--------------------5-----|
E|--------------------------|


| /  slide up
| \  slide down
| h  hammer-on
| p  pull-off
| ~  vibrato
| +  harmonic
| x  Mute note
===============================================================================
comments
We did not receive enough feedback on this tab! Please rate:
print report bad tab
1 2 3 4 5
I want to post or [tab]
guest
You may want to rate the tab now too:
select rating
Please do not post tabs as comments. Select "correction" instead!