Oops, an error
Loading. Please wait.

While Your Lips Are Still Red Tab

version 1
version 1

Intro

Whole song

Interactive

23,923 views 39 this week
3 commentsread comments
1 2 3 4 5
accurate
x 12
add to favorites
launch autoscroll
font size
0
reset
how to read this tab
guitar tuner
Tab Pro tools
  • play this tab
  • loop segment
  • change instrument
  • show fretboard
  • metronome
×
Best way to learn
"While Your Lips Are Still Red"
Autoscroll
slow
fast
+/-
esc
set tempo
stop
Contributor
Difficulty
intermediate
my first tab here, my first time of playing by ear- so don't be so cruel.. 

e:---------1-3----1-3-5-5-6-5---------------------1--------------------|
B:-3-1-3----------------------3-1---1-3-4-4-3-4-----3------------------|
G:---------------------------------------------------------------------|
D:---------------------------------------------------------------------|
A:---------------------------------------------------------------------|
D:---------------------------------------------------------------------|

e:--5-5-6-5------------------------------------------------------------|
B:-----------6-8-----8-6-3-1-------------------------------------------|
G:---------------------------------------------------------------------|
D:---------------------------------------------------------------------|
A:---------------------------------------------------------------------|
D:---------------------------------------------------------------------|


-Maya
comments
print report bad tab
3 comments total.
0 reply
marianoarnaiz wrote on May 2 2008, 12:26 pm

HMMMMM NOT BAD AT ALL, BUT IS NOT THE FULL SONG RIGHT? IF IT ISNT YOU SHOULD HACE SUBMIT IT AS THE INTRO FOR THE SONG

0 reply
marianoarnaiz wrote on May 5 2008, 08:46 am

sorry aprently you did

0 reply
san10 wrote on July 18 2014, 05:34 am

Lack of formatting.

I want to post or [tab]
guest
You may want to rate the tab now too:
select rating
Please do not post tabs as comments. Select "correction" instead!