Oops, an error
Loading. Please wait.

While Your Lips Are Still Red Tab

version 1
version 1

Whole song

Interactive

36,201 views 126 this week
6 commentsread comments
1 2 3 4 5
accurate
x 8
add to favorites
launch autoscroll
font size
0
reset
how to read this tab
guitar tuner
Autoscroll
slow
fast
+/-
esc
set tempo
stop
Help us to improve Ultimate-Guitar.com Take our survey!
×
Author
Difficulty
Tuning
intermediate
D G C F A D
(Kiss) While your lips are still red
Nightwish
Amaranth EP
Tabbed by: Mariano Arnaiz on september 2008
Anything to: marianoarnaiz@hotmail.com
Tunning: 1 full step Down (DGCFAd); D tunning if you rather
Played on piano lol, or acoustic guitar with nylon strings LOL

SO, this is an awsome balad, it takes my breath away every time and as a fan of playing
songs on guitar a had to figure this
song out. Theres nothing really weird tab here, the melody of the piano with a little
of the bass, the main bits of the
violin the rest a chords on Nightwish main tunning wich i chose so you woukd have some
bass strings to pick on from time to time.
I wan t to thanks to the guy who originaly figure out the chords that are all around the
and to Crownless for the help on the intro.
I give no credit to the guitar pro guys cause the tabs are on a newer vertion than mine
was not able to check them out for help, lol.

I hpe you enjoy, plz rate a and comment


[Intro]
Kind of the lead piano left hand with a bit of the backing piano right hand

Am Em G Dm Am Em F G


d||--0---0--3--5--|--3--5--7-7-8-7-0----|----0-1-1-0-1-3-0--||
A||----3----------|------------------3--|--3----------------||
F||---------------|---------------------|-------------------||
C||---------------|------------------0--|-------------------||
G||------------0--|---------------------|----------------0--||
D||---------------|--------0------------|------1------------||

d||--7-7-8-7--3-5--|--5-3-----------------------||
A||----------------|------5-3--(5)-(3)/(1)-(0)--||
F||----------------|-----------------------(0)--||
C||----------------|----------------------------||
G||-------------0--|--------0-------------------||
D||--0-------------|----------------------------||


[Verse 1]
Am F G F G Am C F G Am

Am                          F
sweet little words make the silence
       G                         F    G
not so young, heartfelt love not heartache
Am                    C
dark hair fall, catch in the wind
                  F          G    Am
light the way the sight of a cold world


Chorus: This is the intro plus something more that is played fast on the piano

d||--0---0--3--5--|--3--5--7-7-8-7-0----|----0-1-1-0-1-3-0--||
A||----3----------|------------------3--|--3----------------||
F||---------------|---------------------|-------------------||
C||---------------|------------------0--|-------------------||
G||------------0--|---------------------|----------------0--||
D||---------------|--------0------------|------1------------||
               Kiss.......Your.......red......he’s.......rest

d||--7-7-8-7--3-5--|--5-3-0---------------------||
A||----------------|--------3--(5)-(3)-(1)------||
F||----------------|-----------------------(0)--||
C||----------------|----------------------------||
G||-------------0--|--------0-------------------||
D||--0-------------|----------------------------||
..............untouched...........................(fast part starts)

d||--5---5---5--5---5---5---|--12----12----12---12----12----12----|--3--3--3--3--3--3---||
A||---5---5---5--5---5---5--|----12----12----12---12----12----12--|---3--3--3--3--3--3--||
F||----5---5------5---5-----|------12----12---------12----12------|----4--4-----4--4----||
C||-------------------------|-------------------------------------|---------------------||
G||-------------------------|-------------------------------------|---------------------||
D||-------------------------|-------------------------------------|---------------------||

d||--10----10----10---10----10----10----|--5---5---5--5---5---5---|
A||----10----10----10---10----10----10--|---5---5---5--5---5---5--|
F||------10----10---------10----10------|----5---5------5---5-----|
C||-------------------------------------|-------------------------|
G||-------------------------------------|-------------------------|
D||-------------------------------------|-------------------------|

--12----12----12---12----12----12----||
----12----12----12---12----12----12--||
------12----12---------12----12------||
-------------------------------------||
-------------------------------------||
-------------------------------------||

d||--13---13---13--13---13---13----|--15----15----15--15----15----15----||
A||----13---13---13--13---13---13--|----15----15----15--15----15----15--||
F||------14---14-------14---14-----|------16----16--------16----16------||
C||--------------------------------|------------------------------------||
G||--------------------------------|------------------------------------||
D||--------------------------------|------------------------------------||

First Violin & Piano Bridge:

Am G F G Am


d||-----8-7-8--------|---12-10-8-(7)--|-----8-7-8-------|---10-8-7-(5)--|-----8-7-8-------8-7-8--|
A||--10-------10-10--|----------------|--8---------8-8--|---------------|--10-------10-10--------|
F||------------------|----------------|-----------------|---------------|------------------------|
C||------------------|----------------|-----------------|---------------|--------------0---------|
G||------------------|--0--0--0-0-----|-----------------|--0--0-0-0-----|--0---------------------|
D||------------------|----------------|-----------------|---------------|------------------------|

--10-8-10-----10-8-10-----12\10/12...----------|
----8----------8-8----------8------------------|
-----------------------------------------------|
o----------------------------------------------|
-----------------------------------------------|
-----------------------------------------------|

[Verse 2]

Am                      F
first day of love never comes back
                 G                F      G
compassion, its power’s never are wasted wrong
Am              C
the violin, the poet’s hand
              F                G          Am
every thawing heart plays your theme with care

[Chorus]

d||--0---0--3--5--|--3--5--7-7-8-7-0----|----0-1-1-0-1-3-0--||
A||----3----------|------------------3--|--3----------------||
F||---------------|---------------------|-------------------||
C||---------------|------------------0--|-------------------||
G||------------0--|---------------------|----------------0--||
D||---------------|--------0------------|------1------------||
               Kiss.......Your.......red......he’s.......rest

d||--7-7-8-7--3-5--|--5-3-0---------------------||
A||----------------|--------3--(5)-(3)-(1)------||
F||----------------|-----------------------(0)--||
C||----------------|----------------------------||
G||-------------0--|--------0-------------------||
D||--0-------------|----------------------------||
..............untouched...........................(fast part starts)

d||--5---5---5--5---5---5---|--12----12----12---12----12----12----|--3--3--3--3--3--3---||
A||---5---5---5--5---5---5--|----12----12----12---12----12----12--|---3--3--3--3--3--3--||
F||----5---5------5---5-----|------12----12---------12----12------|----4--4-----4--4----||
C||-------------------------|-------------------------------------|---------------------||
G||-------------------------|-------------------------------------|---------------------||
D||-------------------------|-------------------------------------|---------------------||

d||--10----10----10---10----10----10----|--5---5---5--5---5---5---|
A||----10----10----10---10----10----10--|---5---5---5--5---5---5--|
F||------10----10---------10----10------|----5---5------5---5-----|
C||-------------------------------------|-------------------------|
G||-------------------------------------|-------------------------|
D||-------------------------------------|-------------------------|

--12----12----12---12----12----12----||
----12----12----12---12----12----12--||
------12----12---------12----12------||
-------------------------------------||
-------------------------------------||
-------------------------------------||

d||--13---13---13--13---13---13----|--15----15----15--15----15----15----||
A||----13---13---13--13---13---13--|----15----15----15--15----15----15--||
F||------14---14-------14---14-----|------16----16--------16----16------||
C||--------------------------------|------------------------------------||
G||--------------------------------|------------------------------------||
D||--------------------------------|------------------------------------||

Second Violin & Piano Bridge

Am C G Dm F Am


d||-----8-7-8--------|-----8-12-10-12-8-8--7-8-10-8-7-7--|-----------|
A||--10-------10-10--|--10-------------------------------|--10-------|

--10-8-10-----------8-7-8-------------------------------|
---10-10--10-------10-10--10-12.b(13).r12-10------------|

Bend-]----||
C||------------------|-----------------------------------|--|
G||------------------|-----------------------------------|--|
D||------------------|-----------------------------------|--|


Chorus: With chods now lol
Dm          Am                  C
kiss, while your lips are still red
      Gm                   Dm
while he’s still in silent rest
      Am               A#
while bosom is still untouched
  C                 Dm
unveiled on another hair
          Am                     C
while the hand’s still without a tool
           Gm                       Dm
drown into eyes while they’re still blind
Am                         A#                  C
love while the night still hides the withering dawn

Violin Outro: On the second line you can use a delay to simulate the violin in the
(in parenthesis)
Dm C Bb C Dm

d||---------------|---------------|--------------------------------------------|----------------||
A||----6-5-6------|----6-5-6------|----6-5-6------6-5-6-------8-6-8-----8-6-8--|----10\8/10...--||
F||--7-------7-7--|--5-------5-5--|--7-------7-7--------7---5-------5-5--------|--7-------------||
C||---------------|---------------|--------------------------------------------|----------------||
G||---------------|---------------|--------------------------------------------|----------------||
D||---------------|---------------|--------------------------------------------|----------------||

d||-----------------------------------|-----------------------------------|----------------------|
A||----6-5-6-----(6)-(5)-(6)----------|----6-5-6-----(6)-(5)-(6)----------|----6-5-6------6-5-6--|
F||--7-------7-7-------------(7)-(7)--|--5-------5-5-------------(5)-(5)--|--7-------7-7---------|
C||-----------------------------------|-----------------------------------|----------------------|
G||-----------------------------------|-----------------------------------|----------------------|
D||-----------------------------------|-----------------------------------|----------------------|

-----------------------------------|-------------------|
----8-6-8-----8-6-8--|----10\8/10...-------------------|
-7---5-------5-5--------|--7---------------------------|
-----------------------------|-------------------------|
-----------------------------|-------------------------|
-----------------------------|-------------------------|



************************************

| (n)  Ghost note
| /    Slide up
| \    Slide down

************************************
Suggest correction
comments
print report bad tab
6 comments total. Showing first comments.
0 reply
the_messenger66 1,322 wrote on September 25 2008, 05:23 pm

thank you! i've been wanting this tab.

0 reply
marianoarnaiz 1,521 wrote on September 25 2008, 07:19 pm

no rpob my friend allways here to help

0 reply
LongLostLove 31 wrote on May 1 2010, 08:10 am

Awesome tab! Only some lyric mistakes.

guest
You may want to rate the tab now too:
select rating
Please do not post tabs as comments. Select "correction" instead!