Oops, an error
Loading. Please wait.
We have an official Wish I Had An Angel tab made by UG professional guitarists. Check out the tab »
×
12,637 views 9 this week
1 commentread comment
1 2 3 4 5
2 more votes to show rating
add to favorites
×
Save as Personal and add changes to this tab that will be seen only by you. Learn more ›
×
You can save this tab as Personal to edit and correct it or add notes. All changes will be seen only by you. Learn more »
launch autoscroll
font size
0
reset
guitar tuner
backing track
0:00
0:00
edit
Autoscroll
slow
fast
+/-
esc
set tempo
stop
Author
Difficulty
Band: Nightwish
Album: Once
Song: Wish I Had An Angel
Tuning 4-string: D A D G   E up --> to D
Tabbed By: ClosedRoad

Intro
G ------------------------------------|
D ------------------------------------|
A ------------------------------------|
D -2-3-22-00222023-2-3-22-0002222530--|

G ---------------------------------------------|
D ---------------------------------------------|
A ---------------------------------------------|
D -2-3-22-002220232--2-3-2-5-2-0-2--3-3366553--|

verse
G -----------------------------------------|
D -----------------------------------------|
A -----------------------------------------|
D -22222222223300-2(32x)-55555555/00000000-|

G ------------------------------------------|
D ------------------------------------------|
A --------------------------------55555555--|
D -22222222223300-2(32x)-55555555-----------|

Pre Chorus
G --------------------------------------|
D --------------------------------------|
A -333333333333-------------------------|
D --------------4444-02-02-02--2-5-4-0--|

G ------------------------------------|
D ------------------------------------|
A -333333333333-----------------------|
D --------------4444-5555555555-0--0--|

Chorus
G --------------------------------------|
D --------------------------------------|
A --------2--2-2---33333333333333-1-----|
D -2(24x)--22-2-2--------------------6--|

G -----------------------------------|
D -----------------------------------|
A -----------------------------------|
D -22222222222222-44444444-55555555--|

G -------------------------------|
D -------------------------------|
A -0000000-33335555--------------|
D ------------------2-3-22-0022--|

Verse 1x
pre Chorus 1x

Chorus II
G --------------------------------------|
D --------------------------------------|
A --------2--2-2---33333333333333-1-----|
D -2(24x)--22-2-2--------------------6--|

G -----------------------------------|
D -----------------------------------|
A -----------------------------------|
D -22222222222222-44444444-55555555--|

G ---------------------|
D ---------------------|
A -00000000-3333-5555--|
D ---------------------|

Bridge
G --------------------------------------------|
D --------------------------------------------|
A --------------------------------------------|
D -22-03-0-02--2--2--2-2--2--2-3---0--2---543-|

G ------------------------------------------------|
D ------------------------------------------------|
A -------------------------------------------333--|
D -00--0--0--000-0--0--2230-00-0--0--0--0--0------|

G ------------------------------------------------|
D ------------------------------------------------|
A ------------------------------------------3333--|
D -00--0--0--000-0--0--22330-00-0--0--03333-------|

G ---------------------------------------------------------|
D ---------------------------------------------------------|
A -------------------------1-------------------------------|
D -2-2-2-2-222-2-3-2-2-2-2-----2-2-2-2-222-233-55-0-2-3-6--|

G -------------------------------------------------|
D -------------------------------------------------|
A --------------------------------------------333--|
D -00--0--0--000-0--0--22330-00-0--0--0--0--0------|

G --------------------------------------|
D --------------------------------------|
A --------------------------------3333--|
D -0000000000-22-23--0000000-3333-------|

breakdown
G -----------------------------------------------------|
D -----------------------------------------------------|
A -1~-----------------------1~---------------------3~--|
D ---------2~-------0~--------------2~-------3~--------|

Chorus II 1x
Intro 1x

outro
G ---------------------------------------|
D ---------------------------------------|
A ---------------------------------------|
D -2-3-22--00232023222-2-3-22-002320232--|

G ----------------------------------|
D ----------------------------------|
A ----------------------------------|
D -2-2-2-22-0022-022-2-2-2-0022022--|

Here it is Finaly it took me a long time pfiiieeeuw
But it's done
Have Fun
Greetings ClosedRoad

            
            
Suggest correction
Creating personal tab
Creating personal tab
You can edit any tab online and save it as your Personal.

You can edit, replace or remove any tab part or add personal notes – all changes will be seen only by you.

Personal tabs can be accessed anytime from any device, even offline.
Learn more »
Give kudos to tab author, rate the tab!
1 2 3 4 5
comments
print report bad tab
1 comment total.
0 reply
Basslouder 10 Jan 10, 2008 01:10 PM

to me this one sound good, better than other ones, nice job

guest
You may want to rate the tab now too:
select rating
Wanna post a correction for this tab? Suggest correction