Oops, an error
Loading. Please wait.
We have an official Wish I Had An Angel tab made by UG professional guitarists. Check out the tab »
×
4,408 views 3 this week
2 commentsread comments
1 2 3 4 5
1 last vote to show rating
add to favorites
×
Save as Personal and add changes to this tab that will be seen only by you. Learn more ›
×
You can save this tab as Personal to edit and correct it or add notes. All changes will be seen only by you. Learn more »
launch autoscroll
font size
0
reset
how to read this tab
guitar tuner
backing track
0:00
0:00
edit
Autoscroll
slow
fast
+/-
esc
set tempo
stop
Author
-------------------------------------------------------------------------------
                             Wish I Had An Angel - Nightwish
-------------------------------------------------------------------------------
Tabbed by: Ben
Email: b.gillam@gmail.com  (msn = littleleo88:@aol.com)

. = Palm Mute
x = pick scrape
<3> = pinched harmonic

Tuning: D Standard  (D,G,C,F,A,D)
0:10
e|----------------------------------------------------------------------|
B|----------------------------------------------------------------------|
G|----------------------------------------------------------------------|
D|-4---5---4-----2-2-4-4---2-4-4----4---5---4-----2-2-4-4---4-7-6-5-----|
A|-4---5---4-----2-2-4-4---2-4-4----4---5---4-----2-2-4-4---4-7-6-5-----|
E|-2-2-3-2-2-2-2-0-0-2-2-0-0-2-2-0--2-2-3-2-2-2-2-0-0-2-2-2-2-5-4-3-----|
     .   .   . .         .       .    .   .   . .         .

e|----------------------------------------------------------------------|
B|----------------------------------------------------------------------|
G|----------------------------------------------------------------------|
D|-4---5---4-----2-2-4-4---2-4-4----------------------------------------|
A|-4---5---4-----2-2-4-4---2-4-4----------------------------------------|
E|-2-2-3-2-2-2-2-0-0-2-2-0-0-2-2-0-2-2-3-<5>-2-2-<3>-3-3-6-6-5-5-3------|
     .   .   . .         .       . 

0:31
e|----------------------------------------------------------------------|
B|----------------------------------------------------------------------|
G|----------------------------------------------------------------------|
D|------------4---------------------------------------------------------|
A|-x\\\\\\----4---------------------------------------------------------|
E|-x\\\\\\----2-2-2-2-2-2-2-2-2-2-2-3-3-2-2-2-2-2-2-2-2-2-2-2-2-2-2-2-2-|
 Pick scrape    . . . . . . . . . . . . . . . . . . . . . . . . . . . .

e|----------------------------------------------------------------------|
B|----------------------------------------------------------------------|
G|-------------------------------------------7-7-7-7-7-7-7-7-7-7-7-7--2-|
D|-------------------------------------7--2--7-7-7-7-7-7-7-7-7-7-7-7--2-|
A|-------------------------------------7--2--5-5-5-5-5-5-5-5-5-5-5-5--0-|
E|-2-2-2-2-2-2-2-2-2-2-2-2-2-2-2-2-2-2-5--0-----------------------------|
   . . . . . . . . . . . . . . . . . .

e|----------------------------------------------------------------------|
B|----------------------------------------------------------------------|
G|------------------------------7-7-7-7-7-7-7-7-7-7-7-7-----2-----------|
D|-2-4--2-4--2-4--2-4--4-7-6-5--7-7-7-7-7-7-7-7-7-7-7-7--2--2--2-2------|
A|-2-4--2-4--2-4--2-4--4-7-6-5--5-5-5-5-5-5-5-5-5-5-5-5--2--0--2-2------|
E|-0-2--0-2--0-2--0-2--2-5-4-3---------------------------0-----0-0------|

0:58
e|----------------------------------------------------------------------|
B|----------------------------------------------------------------------|
G|----------------------------------------------------------------------|
D|-4-------------------------------------------------4-----4---4--------|
A|-4-------------------------------------------------4-----4---4--------|
E|-2-2-2-2-2-2-2-2-2-2-2-2-2-2-2-2-2-2-2-2-2-2-2-2-2-2-2-2-2-2-2-2------|
     . . . . . . . . . . . . . . . . . . . . . . . .   . .   .   .

e|----------------------------------------------------------------------|
B|----------------------------------------------------------------------|
G|-7-----------------------------2--------------------------------------|
D|-7-----------------------------2--2---4-------------------------------|
A|-5-5-5-5-5-5-5-5-5-5-5-5-5-5-5-0--2---4-------------------------------|
E|----------------------------------0---2-2-2-2-2-2-2-2-2-2-2-2-2-2-2---|
     . . . . . . . . . . . . . .          . . . . . . . . . . . . . .

e|-----------------------------------------------------------------------------|
B|-----------------------------------------------------------------------------|
G|--------------------------------------------------7--------------------------|
D|--------------------------------------------------7--7-4---5---4-----2-2-4-4-|
A|--------------------------------------------------5--7-4---5---4-----2-2-4-4-|
E|-4-4-4-4-4-4-4-4-5-5-5-5-5-5-5-5-7-7-7-7-7-7-7-7-----5-2-2-3-2-2-2-2-0-0-2-2-|
    . . . . . . . . . . . . . . . . . . . . . . . .         .   .   . .

1:21
e|--------------------------------------------------------------|
B|--------------------------------------------------------------|
G|--------------------------------------------------------------|
D|----4---------------------------------------------------------|
A|----4---------------------------------------------------------|
E|----2-2-2-2-2-2-2-2-2-2-2-3-3-2-2-2-2-2-2-2-2-2-2-2-2-2-2-2-2-|
        . . . . . . . . . . . . . . . . . . . . . . . . . . . .   

e|----------------------------------------------------------------------|
B|----------------------------------------------------------------------|
G|-------------------------------------------7-7-7-7-7-7-7-7-7-7-7-7--2-|
D|-------------------------------------7--2--7-7-7-7-7-7-7-7-7-7-7-7--2-|
A|-------------------------------------7--2--5-5-5-5-5-5-5-5-5-5-5-5--0-|
E|-2-2-2-2-2-2-2-2-2-2-2-2-2-2-2-2-2-2-5--0-----------------------------|
   . . . . . . . . . . . . . . . . . .

e|----------------------------------------------------------------------|
B|----------------------------------------------------------------------|
G|------------------------------7-7-7-7-7-7-7-7-7-7-7-7-----2-----------|
D|-2-4--2-4--2-4--2-4--4-7-6-5--7-7-7-7-7-7-7-7-7-7-7-7--2--2--2-2------|
A|-2-4--2-4--2-4--2-4--4-7-6-5--5-5-5-5-5-5-5-5-5-5-5-5--2--0--2-2------|
E|-0-2--0-2--0-2--0-2--2-5-4-3---------------------------0-----0-0------|

1:45
e|----------------------------------------------------------------------|
B|----------------------------------------------------------------------|
G|----------------------------------------------------------------------|
D|-4-------------------------------------------------4-----4---4--------|
A|-4-------------------------------------------------4-----4---4--------|
E|-2-2-2-2-2-2-2-2-2-2-2-2-2-2-2-2-2-2-2-2-2-2-2-2-2-2-2-2-2-2-2-2------|
     . . . . . . . . . . . . . . . . . . . . . . . .   . .   .   .

e|----------------------------------------------------------------------|
B|----------------------------------------------------------------------|
G|-7-----------------------------2--------------------------------------|
D|-7-----------------------------2--2---4-------------------------------|
A|-5-5-5-5-5-5-5-5-5-5-5-5-5-5-5-0--2---4-------------------------------|
E|----------------------------------0---2-2-2-2-2-2-2-2-2-2-2-2-2-2-2---|
     . . . . . . . . . . . . . .          . . . . . . . . . . . . . .

e|-----------------------------------------------------------------------------|
B|-----------------------------------------------------------------------------|
G|--------------------------------------------------7--------------------------|
D|--------------------------------------------------7--7-4---5---4-----2-2-4-4-|
A|--------------------------------------------------5--7-4---5---4-----2-2-4-4-|
E|-4-4-4-4-4-4-4-4-5-5-5-5-5-5-5-5-7-7-7-7-7-7-7-7-----5-2-2-3-2-2-2-2-0-0-2-2-|
   . . . . . . . . . . . . . . . . . . . . . . . .         .   .   . . 

e|---------------------------------------------------------------------------|
B|---------------------------------------------------------------------------|
G|---------------------------------------------------------------------------|
D|-4-4--4-4-4--4--5-2-4------------------------------------------------------|
A|-4-4--4-4-4--4--5-2-4------------------------------------------------------|
E|-2-2--2-2-2--2--3-0-2------------------------------------------------------|

2:12
e|-------------------------------------------------------------------------|
B|-------------------------------------------------------------------------|
G|-------------------------------------------------------------------------|
D|-7-6-5-2-2---2---2-2---2-2---2---4-4-5-2-2---2---2---2-------------------|
A|-7-6-5-2-2---2---2-2---2-2---2---4-4-5-2-2---2---2---2-------------------|
E|-5-4-3-0-0-0-0-0-0-0-0-0-0-0-0-0-2-2-3-0-0-0-0-0-0-0-0-0-0-0-0-0-0-0-0-0-|
                  .   .     .     .   .           .   .   .   . . . . . . . . .

e|---------------------------------------------------------------------------|
B|---------------------------------------------------------------------------|
G|---------------------------------------------------------------------------|
D|-2-2---2---2-2---2-2---2-4-4-5-2-2---2---2-----5-4-------------------------|
A|-2-2---2---2-2---2-2---2-4-4-5-2-2---2---2-----5-4-------------------------|
E|-0-0-0-0-0-0-0-0-0-0-0-0-2-2-3-0-0-0-0-0-0-0-0-3-2-------------------------|
       .   .     .     .             .   .   . . 

2:25
e|---------------------------------------------------------------------------|
B|---------------------------------------------------------------------------|
G|-------------------------------------------------2-------------------------|
D|-4---4---4---2--4---4---4---5-2--4---4---4-----5-2-2-4-5-2-----------------|
A|-4---4---4---2--4---4---4---5-2--4---4---4-----5-0-2-4-5-2-----------------|
E|-2-2-2-2-2-2-0--2-2-2-2-2-2-3-0--2-2-2-2-2-2-2-3---0-2-3-0-----------------|
     .   .   .      .   .   .        .   .   . .

e|---------------------------------------------------------------------------|
B|---------------------------------------------------------------------------|
G|-------------2-----------------------------------2-------------------------|
D|-4---4---4---2--4---4---4---5-2--4---4---4-----5-2-2-4-5-2-----------------|
A|-4---4---4---0--4---4---4---5-2--4---4---4-----5-0-2-4-5-2-----------------|
E|-2-2-2-2-2-2----2-2-2-2-2-2-3-0--2-2-2-2-2-2-2-3---0-2-3-0-----------------|
     .   .   .      .   .   .        .   .   . . 

2:38
e|--------------------------------------------------------------------------|
B|--------------------------------------------------------------------------|
G|--------------------------------------------------------------------------|
D|-2-2---2---2------2-2---2-4-4-5-2-2---2---2---2---------------------------|
A|-2-2---2---2------2-2---2-4-4-5-2-2---2---2---2---------------------------|
E|-0-0-0-0-0-0-0-00-0-0-0-0-2-2-3-0-0-0-0-0-0-0-0-0-0-0-0-0-0-0-------------|
       .   .   . ..     .             .   .   .   . . . . . . .

e|--------------------------------------------------------------------------|
B|--------------------------------------------------------------------------|
G|--------------------------------------------------------------------------|
D|-2-2---2---2------2-2---2-4-4-5-2-2---2---2---5--4------------------------|
A|-2-2---2---2------2-2---2-4-4-5-2-2---2---2---5--4------------------------|
E|-0-0-0-0-0-0-0-00-0-0-0-0-2-2-3-0-0-0-0-0-0-0-3--2------------------------|
 |     .   .   . ..     .             .   .   .
  |
e|--------------------------------------------------------------------------|
B|--------------------------------------------------------------------------|
G|---------------------<7>--------------------------------------------------|
D|-----------<9>-----------------<7>------<9>-------------------------------|
A|--<7>---------------------------------------------------------------------|
E|--------------------------------------------------------------------------|

2:50
e|---------------------------------------------------------------------------|
B|---------------------------------------------------------------------------|
G|---------------------------------------------------------------------------|
D|--2---------5-------2---------2--------5--4--5-------4---------------------|
A|--2---------5-------2---------2--------5--4--5-------4---------------------|
E|--0---------3-------0---------0--------3--2--3-------2---------------------|

3:14
e|----------------------------------------------------------------------|
B|----------------------------------------------------------------------|
G|----------------------------------------------------------------------|
D|-4-------------------------------------------------4-----4---4--------|
A|-4-------------------------------------------------4-----4---4--------|
E|-2-2-2-2-2-2-2-2-2-2-2-2-2-2-2-2-2-2-2-2-2-2-2-2-2-2-2-2-2-2-2-2------|
     . . . . . . . . . . . . . . . . . . . . . . . .   . .   .   .

e|----------------------------------------------------------------------|
B|----------------------------------------------------------------------|
G|-7-----------------------------2--------------------------------------|
D|-7-----------------------------2--2---4-------------------------------|
A|-5-5-5-5-5-5-5-5-5-5-5-5-5-5-5-0--2---4-------------------------------|
E|----------------------------------0---2-2-2-2-2-2-2-2-2-2-2-2-2-2-2---|
     . . . . . . . . . . . . . .          . . . . . . . . . . . . . .

e|-----------------------------------------------------------------------------|
B|-----------------------------------------------------------------------------|
G|--------------------------------------------------7--------------------------|
D|--------------------------------------------------7--7-4---5---4-----2-2-4-4-|
A|--------------------------------------------------5--7-4---5---4-----2-2-4-4-|
E|-4-4-4-4-4-4-4-4-5-5-5-5-5-5-5-5-7-7-7-7-7-7-7-7-----5-2-2-3-2-2-2-2-0-0-2-2-|
   . . . . . . . . . . . . . . . . . . . . . . . .         .   .   . .

e|---------------------------------------------------------------------------|
B|---------------------------------------------------------------------------|
G|---------------------------------------------------------------------------|
D|---2-4-4---4---5---4-----2-2-4-4---5-7-6-5--4---5---4-----2-2-4-4---2-4-4--|
A|---2-4-4---4---5---4-----2-2-4-4---5-7-6-5--4---5---4-----2-2-4-4---2-4-4--|
E|-0-0-2-2-0-2-2-3-2-2-0-0-0-0-2-2-0-3-5-4-3--2-2-3-2-2-0-0-0-0-2-2-0-0-2-2--|
   .       .   .   .   . .         .            .   .   . .         .

e|---------------------------------------------------------------------------|
B|---------------------------------------------------------------------------|
G|---------------------------------------------------------------------------|
D|----------------------------------4---5---4-----2-2-4-4---2-4-4--4---5---4-|
A|----------------------------------4---5---4-----2-2-4-4---2-4-4--4---5---4-|
E|-0-2-2-3-2-5-2-2-3-3-3-6-6-5-5-3--2-2-3-2-2-2-2-0-0-2-2-0-0-2-2--2-2-3-2-2-|
   .                                  .   .   . .         .          .   .

e|---------------------------------------------------------------------------|
B|---------------------------------------------------------------------------|
G|---------------------------------------------------------------------------|
D|-----2-2-4-4---2-4-4--4---5---4-----2-2-4-4---2-4-4--4---5---4-----2-2-4-4-|
A|-----2-2-4-4---2-4-4--4---5---4-----2-2-4-4---2-4-4--4---5---4-----2-2-4-4-|
E|-2-2-0-0-2-2-0-0-2-2--2-2-3-2-2-2-2-0-0-2-2-0-0-2-2--2-2-3-2-2-2-2-0-0-2-2-|
   . .         .          .   .   . .         .          .   .   . .

e|---------------------------------------------------------------------------|
B|---------------------------------------------------------------------------|
G|---------------------------------------------------------------------------|
D|---2-4-4-------------------------------------------------------------------|
A|---2-4-4-------------------------------------------------------------------|
E|-0-0-2-2-------------------------------------------------------------------|
   .



            
            
Suggest correction
Creating personal tab
Creating personal tab
You can edit any tab online and save it as your Personal.

You can edit, replace or remove any tab part or add personal notes – all changes will be seen only by you.

Personal tabs can be accessed anytime from any device, even offline.
Learn more »
Give kudos to tab author, rate the tab!
1 2 3 4 5
comments
print report bad tab
2 comments total.
0 reply
wrseguitarplayr 61 Jul 16, 2008 12:15 PM

okokokok, good question for you:::::....dude... why do you type standard dgcfad when the lines are ebgdea? XD i just saw that, and it's quit anoying when i copy+paste+print it, cous i usualy leave out the stuff above

0 reply
wrseguitarplayr 61 Jul 16, 2008 12:19 PM

and ithink i rather play this in drop d, cous i always have my guitar on drop d tuning^^

guest
You may want to rate the tab now too:
select rating
Wanna post a correction for this tab? Suggest correction