Oops, an error
Loading. Please wait.

Dado Vuelta tab

23 views 1 this week
no commentswrite comment
1 2 3 4 5
3 more votes to show rating
add to favorites
×
Save as Personal and add changes to this tab that will be seen only by you. Learn more ›
×
You can save this tab as Personal to edit and correct it or add notes. All changes will be seen only by you. Learn more »
launch autoscroll
font size
0
reset
how to read this tab
guitar tuner
edit
Autoscroll
slow
fast
+/-
esc
set tempo
stop
6----------------------------------
5----------------------------------
4-5-4-5-4-5------------------------
3-----------7-5-7-5-7-9-7-9-7-9----
2--------------------------------8-
1----------------------------------

6-------------------------------
5-------------------------------
4---------------9-10-9-10-9-7-5-
3-----9-7-7-9-7-----------------
2-8-7---------------------------
1-------------------------------

G[PM]             D[PM]
Otra vuelta otra vez perdido
C[PM]                 G[PM]
Pero siemrpe en el mismo camino
              D[PM]
No reniego de mi destino
C[PM]               G[PM]
No soi feliz con algo distinto


Sos mis vicios de vuelta
Siemrpe borracho y si te das cuenta
Me gritas te enojas me decis que esta mal
Bla bla bla bla

C           G
Dado vuelta otra vez
D           G
Otra vuelta que bardie X2

6----------------------------------
5----------------------------------
4-5-4-5-4-5------------------------
3-----------7-5-7-5-7-9-7-9-7-9----
2--------------------------------8-
1----------------------------------

6-------------------------------
5-------------------------------
4---------------9-10-9-10-9-7-5-
3-----9-7-7-9-7-----------------
2-8-7---------------------------
1-------------------------------

G           D
Nose lo que hice ayer
C            G
Ni que voi a hacer oi
              D
Igual todo me da lo mismo
C        G
Si ya no esta vos

Ya mil veces tarde
Pero perdi el control
Sigo jnto a la botella
Y asi estoi mejor

C           G
Dado vuelta otra vez
D           G
Otra vuelta que bardie X4

D           G
Otra vuelta que bardie X3

NIKO_PUNK05@

            
            
Suggest correction
Creating personal tab
Creating personal tab
You can edit any tab online and save it as your Personal.

You can edit, replace or remove any tab part or add personal notes – all changes will be seen only by you.

Personal tabs can be accessed anytime from any device, even offline.
Learn more »
Give kudos to tab author, rate the tab!
1 2 3 4 5
comments
print report bad tab
guest
Wanna post a correction for this tab? Suggest correction